Keep Me Waiting by Roxette

Keep Me Waiting tab by Roxette

Guitar tabs

  • Capo on 3rd
Keep Me Waiting - Roxette (Roxette Tourism)

Standard Tuning



Intro / Riff 1

Em D G D

|----------------------------|
|---0------0------0----------|
|----------------------------|
|-2---2-0----0-5----5-4-2-0--| x4
|----------------------------|
|----------------------------|


Verse

Em
I hit the coast with the faith of a preacherman.

		   D	(Pick)
I saw a ghost with a face like a madman.

G			Em			B
I had this dream I was sleeping at the Royal Ball.

Em
I hit the streets,hey watch me in the monitor!

		   D	(Pick)
I saw a clone who looked just like a senator.

G		  Em              B   D
I checked the clock, I felt that it was time to go go go.

Chorus


Riff 2

 Em		 C		D	    G
|-0----0---------0----0---------2----2---------3-----------|
|-0----0-0---0---1----1-1---1---3----3-3---3---0-----------|
|-0--0-----0-----0--0-----0-----2--2-----2-----0--Strum----| Play 2 times
|-2--------------2--------------0--------------0-----------| on third time
|-2--------------3--------------0--------------2-----------| finish at D
|-0--------------0--------------0--------------3-----------| with one strum


	   Em C D
Then came you..

G				   Em C D G
Why did you keep me waiting so long'

G				   Em C D G
Why did you keep me waiting so long'

D
Why did you keep me waiting so long'


Intro / Riff 1


Verse

I was a spy, I was captured by the enemies.
I made a million selling secret fantasies.
I saw my love wasted in a pale gray zone.
I was the quake shaking every monument.
I had to fi-find out what all the money meant.
I checked the sun,
I knew that it was time to go go go.


Chorus

Riff 2

	   Em C D
Then came you..

G				   Em C D G
Why did you keep me waiting so long'

G				   Em C D G
Why did you keep me waiting so long'

D
Why did you keep me waiting so long'

Bridge

Em	C	D	G x2


Em	C	D (keep struming)


|---------------------------------------|
|---------------------------------------|
|-0-0---0-0---0-0---0-0-0-0-0-----------| x4
|-2-2---0-0---5-5---5-6-6-5-6-----------|
|---------------------------------------|
|---------------------------------------|


Chorus  w/Riff 2

Intro / R iff 1

Find guitar tabs and chords

A B C D E F G H I J K L M N O P Q R S T U V W X Y Z #