It Must Have Been Love by Roxette

It Must Have Been Love bass tab by Roxette

Bass tabs

Tuning: Standard (E A D G)

It Must Have Been Love


Intro: (DRUM START)

G|-----------------------------------------|
D|-----------------------------------------|
A|-3---3-3----3---3-3----------------------|
E|----------------------1---1-1----1---1-1-|

G|-----------------------------------------|
D|-------------------------------------3---|
A|-3---3-3----3---3-3----------------------|
E|----------------------1---1-1----1-----1-|

Verse 1:
G|--------------------------------------------------------------|
D|--------------------------------------------------------------|
A|-3---3-3----3---3-3------------------------3---3-3------------|
E|----------------------1---1-1----3---3-3--------------1---1-1-|

G|-------------------------------------------------------------------|
D|-------------------------------------------------------------------|
A|-5---5-5------------------------3---3-3----------------------------|
E|-----------3---3-3----5---5-5-------------1---1-1----3---3-3---3-3-|

Chorus 1:               (Play This Bit x2)
G|---------------------------------------------|
D|---------------------------------------------|
A|-3---3-3--3----------5---x-------------------|
E|-----------1---1-1--1-----5--5----3---3-3--3-|

Verse 2:
G|--------------------------------------------------------------|
D|--------------------------------------------------------------|
A|-3---3-3----3---3-3------------------------3---3-3------------|
E|----------------------1---1-1----3---3-3--------------1---1-1-|

G|-------------------------------------------------------------------|
D|-------------------------------------------------------------------|
A|-5---5-5------------------------3---3-3----------------------------|
E|-----------3---3-3----5---5-5-------------1---1-1----3---3-3---3-3-|

Chorus 2:
G|---------------------------------------------|
D|---------------------------------------------|
A|-3---3-3--3----------5---x-------------------|
E|-----------1---1-1--1-----5--5----3---3-3--3-|

Bridge 1:
G|---------------------------------------------------------------------|
D|---------------------------------------------------------------------|
A|-3---3-3--3----------3---3-3--3----3---3-3--3-1---1-1--1--1---1-1--1-|
E|-----------3---3-3--3------------------------------------------------|

G|-----------------------------------------------------------------|
D|-----------------------------------------------------------------|
A|-5---5-5--5-3---3-3--3-1---1-1--1-5---5-5--5----------3---3-3--3-|
E|--------------------------------------------1---1-1--1-----------|

G|------------------------|
D|------------------------|
A|-1---1-1--1----5-x-3--3-|
E|------------------------|

Chorus 3:               (Play This Bit x3)
G|---------------------------------------------|
D|---------------------5---x-------------------|
A|-----------1---1-1--1-----5--5----3---3-3--3-|
E|-1---1-1--1----------------------------------|

Bridge 2:
G|---------------------------------------------------------------------|
D|---------------------------------------------1--1-1--1---1---1-1--1--|
A|-----------3---3-3--3------------------------------------------------|
E|-1---1-1--1----------1---1-1--1---1---1-1---1------------------------|

Outro: (Repeat Outro To Fade/End)
G|---------------------------------------------|
D|---------------------5---x-------------------|
A|-----------1---1-1--1-----5--5----3---3-3--3-|
E|-1---1-1--1----------------------------------|



Verse 1:

Lay a whisper on my pillow

Leave the winter on the ground

I wake up lonely

This air of silence

In the bedroom and all around

Touch me now

I close my eyes

And dream away


Chorus:

It must have been love

But it's over now

It must have been good

But I lost it somehow

It must have been love

But it's over now

From the moment we touched

Till the time had run out


Verse 2:

Make believing we're together

That I'm sheltered by your heart

But in and outside

I turn to water

Like a teardrop in your palm

And it's a hard

Winter's day

I dream away


Chorus:

It must have been love

(Must have been love)

But it's over now

(It's over now)

It was all that I wanted

Now I'm living without

It must have been love

(Must have been love)


Bridge:

But it's over now

(It's over now)

It's where the water flows

It's where the wind blows


Instrumental Break:


Chorus:

It must have been love

(Must have been love)

But it's over now

(It's over now)

It must have been good

But I lost it somehow

It must have been love

(Must have been love)

But it's over now

(It's over now)

From the moment we touched

Till the time had run out

Yeah, it must have been love

(Must have been love)

But it's over now

(It's over now)

It was all that I wanted

Now I'm living without

It must have been love

But it's over now

It's where the water flows

It's where the wind blows


Outro:

(Must have been love)

It must have been love

But it's over now

No, no, no

It Must Have Been Love bass tab

Roxette bass tabs for It must have been love 4th single release for Swedish Rock Duo Roxette in 1990. Became a worldwide hit and number one in several countries. In UK it peaked at number 3.

Find guitar tabs and chords

A B C D E F G H I J K L M N O P Q R S T U V W X Y Z #