I Remember You by Roxette

I Remember You tab by Roxette

Guitar tabs

band: Roxette
song: I Remember You

Tunning: half step down (eb Ab Db Gb Bb Eb) - Overdrive Guitar
     Not sure about the solo.

Into/Chorus: x4
  |----------------|----------------|-----------------|----------------|
  |----------------|----------------|-----------------|----------------|
  |----------2-(2)-|--7--5--2--(2)--|-------0-----0---|--7--5--2--(2)--|
  |-----2----2-(2)-|--7--5--2--(2)--|-----2-----0-----|--7--5--2--(2)--|
  |-2-4------0-(0)-|--5--3--0--(0)--|-0-3-----2-----0-|--5--3--0--(0)--|
  |-------0--------|----------------|-----------------|----------------|
  Are you ready ! Go!


Verses: x2
   PM----------|  PM----------|   PM----------|   PM-----------|
  |-----------------|-----------------|-----------------|-----------------|
  |-----------------|-----------------|-----------------|-----------------|
  |-----------------|-----------------|-----------------|-----------------|
  |-----2-----2---2-|-----2-----2---2-|-----5-----5---5-|-----7-----7---7-|
  |-----2-----2---2-|-----2-----2---2-|-----5-----5---5-|-----7-----7---7-|
  |-0-0-0-0-0-0-0-0-|-0-0-0-0-0-0-0-0-|-3-3-3-3-3-3-3-3-|-5-5-5-5-5-5-5-5-|
  E                     G         A
I hear your footsteps, like you're walking. I hear your voice, like you're
                               talking to me
And I can reach, every moment.    Every caress, like I'm living a dream


Bridge:
  |--------|----------------|-------------|----------------|
  |--------|----------------|-------------|----------------|
  |--------|--9--7--5--(5)--|-(5)---------|--9--5--7--(7)--|
  |--------|--9--7--5--(5)--|-(5)---------|--9--5--7--(7)--|
  |--------|--7--5--3--(3)--|-(3)---------|--7--3--5--(5)--|
  |--------|----------------|-------------|----------------|
        E D C            E C D
  Down to the bone,     go little darling


Chorus: x2
  |----------------|----------------|-----------------|----------------|
  |----------------|----------------|-----------------|----------------|
  |----------2-(2)-|--7--5--2--(2)--|-------0-----0---|--7--5--2--(2)--|
  |-----2----2-(2)-|--7--5--2--(2)--|-----2-----0-----|--7--5--2--(2)--|
  |-2-4------0-(0)-|--5--3--0--(0)--|-0-3-----2-----0-|--5--3--0--(0)--|
  |-------0--------|----------------|-----------------|----------------|
     Oh I remember you,         feels like it was yesterday
     I remember you,        you've got me running back again


Verses:
  You shared my secrets, and my laughter. I fell in love, with the
                             light in your eyes
  And I believed, that summer, Would go on and on, for the rest of my life


Bridge:
  Down to the bone, go little darling

Chorus:
  Hey I remember you,      feels like it was yesterday
  I remember you,      you've got me running back again

  |----------------|
  |----------------|
  |--7--5--2--(2)--|
  |--7--5--2--(2)--|
  |--5--3--0--(0)--|
  |----------------|
  You've got me running


Refrain: x2
  PM----------|  PM----------|   PM----------|   PM-----------|
  |-----------------|-----------------|-----------------|-----------------|
  |-----------------|-----------------|-----------------|-----------------|
  |-----------------|-----7-----7---7-|-----------------|-----5-----5---5-|
  |-----5-----5---5-|-----7-----7---7-|-----3-----3---3-|-----5-----5---5-|
  |-----5-----5---5-|-5-5-5-5-5-5-5-5-|-----3-----3---3-|-3-3-3-3-3-3-3-3-|
  |-3-3-3-3-3-3-3-3-|-----------------|-1-1-1-1-1-1-1-1-|-----------------|
   G         D         F         C
 (I say) na na na na, na na na na,   na na na na,   na na na na

Into: x1
Solo:
  |----------------------------------------------------------------|
  |-------------------------------------------------7--------------|
  |---9-------9b-9-9b-7-9b-9-9b-9-9b-7----------7-9-----------7-9b-|
  |-9b--9b~---9b-9-9b-7-9b-9-9b-9-9b-7-9----7-9-------9---9-9------|
  |------------------------------------9---------------------------|
  |----------------------------------------------------------------|

  |-----------------------------13----15~--13--|
  |-----------13----13----13-15----15----------|
  |-----12-14----14----14----------------------|
  |-/14----------------------------------------|
  |--------------------------------------------|
  |--------------------------------------------|

Bridge:
Chorus:
Refrain:

Find guitar tabs and chords

A B C D E F G H I J K L M N O P Q R S T U V W X Y Z #