Heart Shaped Sea by Roxette

Heart Shaped Sea tab by Roxette

Guitar tabs

Title: The Heart Shaped Sea
Artist: Roxette


      Dsus D5 D   Dsus D5  D

INTRO:E------3-3-0-0-2--------3-3-0-0-2--------|
   B----3-3-3-3-3-3------3-3-3-3-3-3--------|
   G---2--2-2-2-2-2-----2--2-2-2-2-2--------|
   D--0---0-0-0-0-0----0---0-0-0-0-0--------|
   A----------------------------------------|
   E----------------------------------------|

                (Repeat Intro as above for all D chords)

   D      Dsus D5   D          Dsus D5 D
  Babe it's time,  To tell me that it's over.
   D          Cadd9  G          Dsus D5 D
  Tell me that it's over, It's plain to see.
   D       Dsus D5 D       Dsus   D5  D
  And this time,   We won't be starting over.
   D          Cadd9    G
  No crying on your shoulder,
              Dsus D5 D      Fill1 D-----
  Into  the heart shaped sea.          A-3-2-
                            E-----

   Am         C           Dsus D5 D  (Fill1)
  Oh, you've been  a running from my door,
   Am         C
  And you've been enchanted by
   G              Dsus D5 D
  the gracious voice of love.

 Fill2  D      F   C
  E-------------------------------------|
  B-----2-------------1----1------------|
  G----3-------------2-----0------------|
  D---0---2/5-2-0---3------2---0--------|
  A------------------------3-----3------|
  E-------------------------------------| X3

    F  C
  E------------------|
  B-----1----1-------|
  G----2-----0-------|
  D---3------2--0----|
  A----------3----3--|
  E------------------|


REPEAT INTRO

   D      Dsus D5 D            Dsus D5
  Babe it's time,   To look me in the eyes.
   D      Cadd9 G           Dsus D5 D
  Time to say goodbye, It's clear to me.
   D      Dsus D5   D           Dsus D5 D
  And this time,  I won't let you down.
   D       Cadd9 G            Dsus D5 D  (Fill1)
  You can turn around,  I'll set you free.


   Am         C           Dsus D5 D  (Fill1)
  Oh, you've been  a sailing from my shore,
   Am         C
  And you've been enchanted by
   G        Dsus D5 D
  some-one from a far.

Fill3  D      F   C
  E-------------------------------------|
  B-----2-------------1----1------------|
  G----3-------------2-----0------------|
  D---0-----5-2-0---3------2---0--------|
  A------------------------3-----3------|
  E-------------------------------------| X3

    F  C     F C
  E--------------------------------------|
  B-----1----1----------1--1-------------|
  G----2-----0---------2---0-------------|
  D---3------2--0-----3----2---0---------|
  A----------3----3--------3-----3-------|
  E--------------------------------------|


    (STRUM)
BRIDGE: D  F  C  D
	D  C  G  D
	D  F  C  D  Bb  G


Fill4 E---6-6p5-3-1-----|
   B-----------------|


REPEAT INTRO


   D      Dsus D5   D            Dsus D5 D
  Babe it's time,  To gather all the harvest.
   D          Cadd9   G
  To pray before the winter,
                Dsus D5 D  (Fill1)
  and sail the heart shaped sea.

   Am         C           Dsus D5 D   (Fill1)
  Oh, you've been  a running from my love,
   Am         C
  And you've been enchanted by
   G          Dsus D5 D
  the powers up above.

REPEAT INTRO TO FADE

_____________________________________________________________
Submitted by Vixen79

Other chords used:

C   = x32010
Cadd9 = x32030
G   = 320033
Am  = x02210
F   = xx3211
Bb  = x13331

Other versions of Heart Shaped Sea

Alternative guitar chords and tabs for Heart Shaped Sea by Roxette

Find guitar tabs and chords

A B C D E F G H I J K L M N O P Q R S T U V W X Y Z #