Harley Heaven by Roxette

Harley Heaven tab by Roxette

Guitar tabs

8x
E-||---------------||-------------------------------------------|-------|
B-||*-------------*||-------------------------------------------|-------|
G-||--9-9----------||-9-9----------5-5---------7-7---------2/-4-|-9-9---|
D-||--9-9----------||-9-9----------5-5---------7-7---------2/-4-|-9-9---|
A-||*-7-7---------*||-7-7----------3-3---------5-5---------0/-2-|-7-7---|
E-||------0-0-0-0--||-----0-0-0-0------0-0-0-0-----0-0-0-0------|-----0-|

E|----------------------------|----------------------------------------|
B|----------------------------|----------------------------------------|
G|--------5-5---------7-4-2-2-|-9-9---------5-5---------7-7---------2/-|
D|--------5-5---------7-4-2-2-|-9-9---------5-5---------7-7---------2/-|
A|--------3-3---------5-2-0-0-|-7-7---------3-3---------5-5---------0/-|
E|-0-0-0------0-0-0-0---------|-----0-0-0-0-----0-0-0-0-----0-0-0-0----|

                   Chorus
E|---|-----------------------------|-----------------------|------------|
B|---|-----------------------------|-----------------------|------------|
G|-4-|-9-9---------5-5---------7---|-----------------------|------------|
D|-4-|-9-9---------5-5---------7---|---2-------------------|-2----------|
A|-2-|-7-7---------3-3---------5---|---0-----x-2h4-5-x-----|-0-----x-2--|p
E|---|-----0-0-0-0-----0-0-0-0-----|-0---x-2-----------2p0-|---x-2------|
               I'm Running Wild....

      Solo rhythm          3x        Bridge
E|----------||-----------------------------||---------------|-----------|
B|----------||*---------------------------*||---------------|-----------|
G|----------||-----------------------------||---------------|-----------|
D|----------||--2--------------------------||-2-------------|---7-7p5---|
A|-4-5------||*-0-----x-2p4/5-x-x-x-x-----*||-0-----x-2p4/5~|---7-7p5---|
E|-----2-0--||----x-2-----------------2p0--||---x-2---------|-0-------0-|

E---------|-----------|--------------|
B---------|-----------|--------------|
G---------|-----------|--------------|
D-7-7p5p0-|-7-9-10-12-|-7-9-10-12-14-|
A-7-7p5p0-|-7-9-10-12-|-7-9-10-12-14-|
E---------|-5-7--8-10-|-5-7--8-10-12-|
          I taste the life, that pleases me.

Other versions of Harley Heaven

Alternative guitar chords and tabs for Harley Heaven by Roxette

Find guitar tabs and chords

A B C D E F G H I J K L M N O P Q R S T U V W X Y Z #