Go To Sleep by Roxette

Go To Sleep tab by Roxette

Guitar tabs

Roxette: Go To Sleep
 --------------------
 Words by Per Gessle
 Music by Marie Fredriksson
 Trans. Ben Sinclair (ssusncla@rdg.ac.uk)
 (from memory, so tell me if it's wrong!)
 10/2/1995


       Baby...      before you go to sleep...
 e|----------------------------------------
 B|----------------------------------------
 G|-------10-----------------10------------
 D|----10-----------------10---------------
 A|-12-----------------12------------------
 E|----------------------------------------

       baby...
 e-----------------------------------------
 B-----------------------------------------
 G--------10-----------------10-\5---------
 D-----10-----------------10---------------
 A--12-----------------12------------------
 E-----------------------------------------


 There's a shadow on ....

 And life's a tough principal who ....

             F          D      C
 But to wish you'd think about me ...
          A#               F
 and I wish you the best ....

 There are tears without ....

 And love's a golden ripple .....

             F          D      C
 And I wish you'd think ...
          A#               F
 and I wish you the best there is ....

 (repeat intro riff until song ends)

 Go to sleep.

Other versions of Go To Sleep

Alternative guitar chords and tabs for Go To Sleep by Roxette

Find guitar tabs and chords

A B C D E F G H I J K L M N O P Q R S T U V W X Y Z #