Fireworks by Roxette

Fireworks tab by Roxette

Guitar tabs

Roxette: Fireworks
 ------------------
 Written by Per Gessle
 Trans. Ben Sinclair ([email protected])
 11/2/1995

 Intro:

 e|--------------------------------------
 B|--------------------------------------
 G|--------------------------------------   x2
 D|--------------------------------------
 A|--------1----------------1-1-1--------
 E|-\1-3-3---3----1-3---3-3-------3------


 I once new a girl I can't ....

 They both left school, but they ....

 C      A#m      G
 As they were riding by ...
   C   A#m      G                      F
 the radio shouted out one of ...

 It went like this:

 D    G      A
 "Checkin' in ...
 D   G      A        D      Bm
 Making love I like ...
      G         A       E
 I like it when I light ...
      G    C    D
 Just like ...

 Yes it did.


 Throwing some poems to ...
                   D     C   G
 They were sleeping outdoors puching ...

 They sent me a letter full ....
                   D    C
 Then they both got rich ...

 C       A#m      G
 Yea they made lots of ....
 C    A#m         G                 F
 Cos everywhere the boys went crazy ....

 [CHORUS] as before,
 & harmonica solo: just play D A D A throughout

 E    A      B
 "Checkin' in ...
 E   A      B        E      C#m
 Making love I like watching ..
      A         B       F#
 I like it when ...
      A    D    E
 Just like ...

 They're ....
 They're coming to get .....

 e|--------------------------------------
 B|--------------------------------------
 G|--------------------------------------  } to end.
 D|--------------------------------------
 A|--------3----------------3-3-3--------
 E|-\3-5-5---5----3-5---5-5-------5------

 Watch the sky!

Find guitar tabs and chords

A B C D E F G H I J K L M N O P Q R S T U V W X Y Z #