Fading Like A Flower by Roxette

Fading Like A Flower tab by Roxette

Guitar tabs

Roxette - Fading Like A Flower (Every Time You Leave)
-----------------------------------------------------
Trans. Ben Sinclair (ssusncla@rdg.ac.uk)

A#
[Verse 1]

In a time where the sun ....

[Chorus]

F     A#       D   C
Every time I see you oh ...
F G A A#         C     F
But when we meet ...
F       A#        D    C       A# * C
Every time you leave the room I ...


   * = With this played over the rhythm between the chords
     after "flower"

A#         C
e--------------------
B---------9br--------
G-9/10-12-----10-12--
D--------------------
A--------------------
E--------------------


Tell me why, when I scream ....

    |fast bend|
e--------------------
B--------------------
G-12brp10-12b(13)----
D-----------------12-
A--------------------
E--------------------

                   G -->
When I sleep I ....

[Chorus]

F     A#       D   C
Every time I see you oh ...
F G A A#         C     F
But when we meet it ....
F       A#        D    C       A# * C
Every time you leave the ....



         D  C  F
Fading like a rose...
G        D  C  F
Fading like a rose...
G        D  C  F
Beaten by the ....
G     A --->(keep going)
Talking to myself, ....

  Where the D, C, F and G chords are muffled slightly.
  And the chords used are these:

  E A D G B e
D: 10 12 12 -- -- --
C: 8 10 10 -- -- --
F: -- 8 10 10 -- --
G: -- 10 12 12 -- --
A: -- 12 14 14 -- --

[Solo]

e-----------------------------------------------
B------------------------------------10-10p8-10-
G-7h9-9br-7-5-5h7-5--(5)/7-7h9-9br-7------------
D-----------------------------------------------
A-----------------------------------------------
E-----------------------------------------------


e-10-10p8-8-------------------------------------
B-----------h10-10p8-8--------------------------
G----------------------h10-10p9-9p7-7p5-5h7-7---
D-----------------------------------------------
A-----------------------------------------------
E-----------------------------------------------

 |-hold-|
e-----10--------------------------
B-10bbbbbr-10-10-8-10brp8-8h10----
G------------------------------10-
D---------------------------------
A---------------------------------
E---------------------------------

[Chorus] Sung with no guitar, then:

C
G     C       E   D
Every time I see you ....
G A B C         D     G
But when we meet ...
G       C        E    D
Every time you leave the ...
G     C       E   D
Every time I see you oh I ....
G A B C         D     G
But when we meet ...
G       C        E    D       A#  C
Every time you leave .....


[Outro] With the bass playing the chorus:

  (This sounds ok, but it's probably not how he plays it)

e-------------------------------------------10--------------
B-8-8-7-8-8-7-8--8-8-10-10-8-7-8--8-8-7-8-8----10-10-10p8-8-
G-----------------------------------------------------------
D-----------------------------------------------------------
A-----------------------------------------------------------
E-----------------------------------------------------------

[to fade]

Other versions of Fading Like A Flower

Alternative guitar chords and tabs for Fading Like A Flower by Roxette

Find guitar tabs and chords

A B C D E F G H I J K L M N O P Q R S T U V W X Y Z #