Fading Like A Flower  by Roxette

Fading Like A Flower chords by Roxette (Ver. 2)

Guitar chords with lyrics

Dm
In a time
      Am        Dm
Where the sun descends alone,
     F     C      Dm
I ran a long long way from home
       Am          G
To find a heart that's made of stone.

     Dm
I will try,
     Am      Dm
I just need a little time
       F     C     Dm
To get your face right out of my mind,
       Am           G
To see the world through different eyes.

F      Bb      Dm   C
Every time I see you oh I try to hide away
F    Bb          C    F
But when we meet it seems I can't let go.
F     Bb           Dm   C       Bb
Every time you leave the room I feel I'm fading like a flower.

E|-------------------------
B|-------6--8~-6--8~-------
G|----7-----7~-------------
D|-------------------------
A|-------------------------
E|-------------------------

     Dm
Tell me why?
     Am         Dm
When i scream there's no reply,
    F         C      Dm
When i reach out there's nothing to find,
     Am           G
When I sleep I break down and cry.

F      Bb      Dm   C
Every time I see you oh I try to hide away
F    Bb          C    F
But when we meet it seems I can't let go.
F     Bb           Dm   C       Bb
Every time you leave the room I feel I'm fading like a flower.

E|-------------------------
B|-------6--8~-6--8~-------
G|----7-----7~-------------
D|-------------------------
A|-------------------------
E|-------------------------

C        Dm  C F
Fading like a rose,
C        Dm  C F
Fading like a rose,
C        Dm C F
Beaten by the storm,
G       A
Talking to myself, getting washed by the rain,
            Dm
It's such a cold cold town.

Solo: Dm Am C Dm F C Dm C G

E|--------------------------------------------7b7b---3~---
B|-------5-5b6r5---------------------5-5b6r5---------3~---
G|-9~-7~--------7--5-5-7-5-5-5h7~-—7--------7-------------
D|----------------7--------------------------7------------
A|--------------------------------------------------------
E|--------------------------------------------------------

E|-----------------------------------
B|-----------------------------------
G|-----------------------------------
D|-17-16-14-12-10-9-7-5--------------
A|-15-14-12-10-8--7-5-3-5-5----------
E|------------------------------3-3--

E|----------14----------------------------------------
B|--------------14------------------------------------
G|---14b-----------14r-12-14b-12------12/14\10~-------
D|--------------------------------—----14-------------
A|----------------------------------------------------
E|----------------------------------------------------

F      Bb      Dm   C
Every time I see you oh I try to hide away
F    Bb          C    F
But when we meet it seems I can't let go.
F     Bb           Dm   C       Bb
Every time you leave the room I feel I'm fading like a flower.

G      C      Em     D
Every time I see you oh I try to hide away
G      G      D      G
But when we meet it seems I can't let go.
G      C        Em     D        C
Every time you leave the room I feel I'm fading like a flower

Frase final:
E|--------10----------------------------10----------------------
B|-8-8-7-8--8--8-8-10-10-8-7-8---8-8-7-8--10-8-8-10-10-8-7-8----
G|--------------------------------------------------------------
D|--------------------------------------------------------------
A|--------------------------------------------------------------
E|--------------------------------------------------------------

Other versions of Fading Like A Flower

Alternative guitar chords and tabs for Fading Like A Flower by Roxette

Find guitar tabs and chords

A B C D E F G H I J K L M N O P Q R S T U V W X Y Z #