Chances by Roxette

Chances chords by Roxette

Guitar chords with lyrics

Key: G#

 intro: F5 Eb5 C5 C#5
E|----------------------------------------------------------------------
B|----------------------------------------------------------------------
G|----------------------------------------------------------------------
D|---------1-1-3------------1-1-3------------1-1-3-----------1-1-3------
A|-3-3-3--3-3---3---3-3-3--3-3---3---3-3-3--3-3---3--4-4-4--4-3---3-----
E|----------------------------------------------------------------------


       Fm      Eb
 Hear my call, here and everywhere
       Cm             C#
 I've been walking the streets in despair.
       Fm      Eb
 One more fire turns a shade of grey,
       Cm         C#
 one more tear is lost in the rain.

            Fm         Eb
 And I say that I love you. I say that I need you.
     Cm         C#
 Baby I leave you a sign of desire.
          Fm            Eb
 No shadow will haunt you, no heart will desert you,
        Cm          C#
 no one will hurt you, no space or no time.


                     Fm     C#
 Got to got you got to got to take your chances on me,
      Ab         Eb        Fm
 like the river will lead the water to the sea,
      C#       Ab
 take on me, take your chances on me.
    Eb       Bbm   Cm      Fm C# Ab Eb
 Don't ever let it be. Don't ever let it be.

       Fm      Eb
 There's a night when you close your eyes
      Cm             C#
 around a dream that shines like the sun.
     Fm      Eb
 Everyone knows it's beautiful,
         Cm        C#
 tell me why you want to dream it alone.

             Fm         Eb
 And I say that I love you, I say that I need you,
     Cm           C#
 baby I leave you the lines in my palm.
         Fm            Eb
 No darkness will get you, no heart will desert you,
       Cm           C#
 nothing can hurt you or do you any harm.

                     Fm    C#
 Got to got you got to got to take your chances on me,
      Ab         Eb      Fm
 like the river will lead the water to the sea,
      C#       Ab
 take on me, take your chances on me.
    Eb       Bbm   Cm
 Don't ever let it be. Don't ever let it be.

 solo: Fm C# Ab Eb Fm C# Ab Eb Bbm Cm ...

E|-8/11-8/11-8--15/17-15--15-16-18--14b--------------------
B|-------------------------------------15b-11b~------------
G|----------------------------------------------9-11~-6~\--
D|---------------------------------------------------------
A|---------------------------------------------------------
E|---------------------------------------------------------

E|---------------11---------------------------
B|-11rp9-11b12rp9--11-11rp9-11p9-11rp9~~------
G|--------------------------------------10~\--
D|--------------------------------------------
A|--------------------------------------------
E|--------------------------------------------

E|-------------------------------------------------------------------
B|--------------------9-11-12-9~-11p9~-11~~p9-11b13r9-11-9-11-11/12\-
G|-------------8-9-11------------------1-----------------------------
D|------6-8-9--------------------------------------------------------
A|-6-7-9-------------------------------------------------------------
E|-------------------------------------------------------------------

E|-------------------------
B|-11-13-13b15-14r13-11~~\-
G|-------------------------
D|-------------------------
A|-------------------------
E|-------------------------

E|----------------------------------------------------------------------
B|----------------------------------------------------------------------
G|----------------------------------------------------------------------
D|---------1-1-3------------1-1-3------------1-1-3-----------1-1-3------
A|-3-3-3--3-3---3---3-3-3--3-3---3---3-3-3--3-3---3--4-4-4--4-3---3-----
E|----------------------------------------------------------------------

 Got to...

  Fm    C#
 chances on me,
      Ab         Eb      Fm
 like the river will lead the water to the sea,
      C#       Ab
 take on me, take your chances on me.
    Eb       Bbm   Cm
 Don't ever let it be. Don't ever let it be.

Other versions of Chances

Alternative guitar chords and tabs for Chances by Roxette

Find guitar tabs and chords

A B C D E F G H I J K L M N O P Q R S T U V W X Y Z #