Log in

One click and you are in

Login with Facebook Login with Google

Why sign up and log in

Guitar Tabs Explorer
Round Two tabs for Lie to me

Guitar tabs with lyrics

"Lie to Me"
by: Round Two
Transcribed by Steve Smerker
This file is all my own work

Guitar 1 is played with the neck and bridge pickups (humbuckers)
with distortion

Guitar 2 is played with the neck pickup (humbucker)
with distortion for every part except the intro section
which is played clean

h = hammer on
p = pull off
/ = slide
X = mute strings
intro:

Guitar 1
(uses slight vibrato technique on longer notes)

e-----------h------------h-------h-----------------------
b--/3-3-2--2-3--/5-3-2--2-3--2--2-3-3--------------------
g-------------------------------------4-2-2/4------------
D--------------------------------------------------------
A--------------------------------------------------------
E--------------------------------------------------------


e-----------h------h-------------------------------------
b--/3-3-2--2-3--2-2-3-3-------------------p--------------
g-----------------------2---2/4---/4-2-0-2-0-------------
D-------------------------4-----------------2-2/4--------
A--------------------------------------------------------
E--------------------------------------------------------

Guitar 2    
2x  *on 2nd time
e-----------------------------------------|---------------
b----0---------0---------0---------0------|---------------
g---4--4-4----4--4-4----4--4-4----4-4-----|-4------------- 
D--4----4----4----4----4----4----4--------|-4-------------
A-2---------0--------------------------0--|-2-------------
E--------------------3---------2------3---|---------------


verse:

B5/F#     A5/E      G5/D     F#5/C# 2x
e--------------------- h---------------------------------
b---------------*(/4-2-0-2)*verse2 fill------------------
g--------------------------------------------------------
D-4-4--4-4--2-2--2-2--12-12--12-12--11-11--11-11---------
A-2-2--2-2--0-0--0-0--10-10--10-10--9--9---9--9----------
E-2-2--2-2--0-0--0-0--10-10--10-10--9--9---9--9----------


pre-chorus:

Guitar 1 

B5      A5        A chord diagramG5G5 A chord diagramF#5F#5 2x
e--------------------------------------------------------
b--------------------------------------------------------
g--------------------------------------------------------
D-9---------7---------5----------4-----------------------
A-9---------7---------5----------4-----------------------
E-7---------5---------3----------2-----------------------


Guitar 2
       p         2x
e----0----------0----------0----------5-0----------------
b--3----3-3---3----3-3---3----3-3---3-----3--------------
g-4-4----4---2-2----2---0-0----0-------------------------
D----------------------------------4-4------4------------
A--------------------------------------------------------
E--------------------------------------------------------


chorus:

Guitar 1
B5/F# D5/A B5/F# D5/A A chord diagramE5E5 B5/F# D5/A B5/F# D5/A E5/B   2x or 4x
e--------------------------------------------------------
b-7----10---7----10--3-----7----10---7----10---12--------
g-4----7----4----7---4-----4----7----4----7----9---------
D-4----7----4----7---2-----4----7----4----7----9---------
A--------------------------------------------------------
E--------------------------------------------------------


Guitar 2

B5    D5   B5   A chord diagramD5D5 E5   B5   D5   B5   A chord diagramD5D5 A chord diagramE5E5        2x or 4x
e--------------------------------------------------------
b--------------------------------------------------------
g-4----7----4----7--9----4----7----4----7----------------
D-4----7----4----7--9----4----7----4----7---2------------
A-2----5----2----5--7----2----5----2----5---2------------
E-------------------------------------------0------------


solo:

B5    A chord diagramD5D5 E5    B5    A chord diagramD5D5 A chord diagramE5E5 2x
e--------------------------------------------------------
b--------------------------------------------------------
g-4----7--9------4----7----------------------------------
D-4----7--9------4----7--2-------------------------------
A-2----5--7------2----5--2-------------------------------
E------------------------0-------------------------------


outro:

B5/F#      D5/A      E5/B      D5/A 2x
e---------------------------------------------------------
b---------------------------------------------------------
g---------------------------------------------------------
D-4-4--4-4--7-7--7-7--9-9--9-9--7-7--7-7------------------
A-2-2--2-2--5-5--5-5--7-7--7-7--5-5--5-5------------------
E-2-2--2-2--5-5--5-5--7-7--7-7--5-5--5-5------------------

*all except final
  B5/F#             D5/A              E5/B              D5/A 2x
e-------------------------------------------------------------------------
b-------------------------------------------------------------------------
g-------------------------------------------------------------------------
D-4-4-X-X-4-4-X-X-X-7-7-X-X-7-7-X-X-X-9-9-X-X-9-9-X-X-X-7-7-X-X-7-7-X-X-X-
A-2-2-X-X-2-2-X-X-X-5-5-X-X-5-5-X-X-X-7-7-X-X-7-7-X-X-X-5-5-X-X-5-5-X-X-X-
E-2-2-X-X-2-2-X-X-X-5-5-X-X-5-5-X-X-X-7-7-X-X-7-7-X-X-X-5-5-X-X-5-5-X-X-X-


ending

B5/F# C#/G# D5/A B5/F#
e---------------------------------------------------------
b---------------------------------------------------------
g---------------------------------------------------------
D-7----6----7----4----------------------------------------
A-5----4----5----2----------------------------------------
E-5----4----5----2----------------------------------------

Almost there ...

Sign in to get your own page with links to favourite songs and more. You are just one click away...

Login with Facebook Login with Google