Log in

One click and you are in

Login with Facebook Login with Google

Why sign up and log in

Guitar Tabs Explorer
Patti Rothberg tabs for Treat me like dirt

Guitar tabs

From Visscher@ALG.FRG.eur.nl Tue Apr  8 13:03:03 1997


Treat me like dirt - Patti Rothberg
>From the album `between the 1 and the 9'

Transcribed by Visscher@alg.frg.eur.nl
Comments, suggestions, additions etcetera, everything is welcome!
I think Patti plays a 12 string acouistic guitar in this song, but I'm not
sure. The tab is for a regular six-string, though.
First I describe the 3 pieces which you play during the song. With Fig 1, I
describe the way I think it is played in the intro. The bend is just about 1/4

note up. During the verses, make some variations on this figure. Fig 2 speaks
for itself. In Fig 3, replace the A-chord sometimes by an A chord diagramAsus4Asus4 (x02230)
Here are the figures:


Fig 1.
  A chord diagramE MajorE               A chord diagramG+G     A chord diagramA augmentedA     A chord diagramG+G
  +   .   +   .   +   .   +   .   |
|---------------------------------|
|-----------------------2---2-----|
|-----1-----1-----------2---2-----|
|-----2-----2---------------------|
|---------------------------------|
|-0-----------0h2/3b----------3---|
                   |
                   (bend 1/4)


Fig 2
  A chord diagramA augmentedA               A chord diagramDsus4Dsus4 A chord diagramD MajorD
  +   .   +   .   +   .   +   .   |
|-----0-----0-0---3---3-2---2-----|
|-----2-----2-2---3---3-3---3-----|
|-----2-----2-2---2---2-2---2-----|
|---------------------------------|
|-0-------------------------------|
|---------------------------------|

Fig. 3
  A chord diagramBB                                 A chord diagramA augmentedA
  +   .   +   .   +   .   +   .   | +   .   +   .   +   .   +   .   |
|---------------------------------|---------------------------------|
|-----4-----4-4-4-4---4-4---4-4---|-----2-----2-2-2-2---2-2---2-2---|
|-----4-----4-4-4-4---4-4---4-4---|-----2-----2-2-2-2---2-2---2-2---|
|-----4-----4-4-4-4---4-4---4-4---|-----2-----2-2-2-2---2-2---2-2---|
|-2-------------------------------|-0-------------------------------|
|---------------------------------|---------------------------------|




INTRO
play Fig 1 8 times (drums come in the 5th time around)


VERSE 1
(w/Fig 1)      You stay away from me, .....
(w/Fig 2)      know you're no ...
               gether we are ...
(w/Fig 1)      see?


VERSE 2
(w/Fig 1)      I'm the one you want. When ....

(w/Fig 2)      flirt with other ...
               know I could be ....
(w/Fig 1)      sea.


PRE-CHORUS
(w/Fig 3)      I could be so jealous of .....


CHORUS
(w/Fig 1)      Treat me ...
               Treat me ....
               Treat me ....


VERSE 3
(w/Fig1)       Standing at the .....
(w/Fig 2)      way you treated ...
               staring at the .....
(w/Fig 1)      neck.


VERSE 4
(w/Fig1)       I was hoping soon ....
(w/Fig 2)      giving you my ...
               giving you the ...
(w/Fig 1)      mind.


PRECHORUS


CHORUS


VERSE 5
(w/Fig1)       If I had a dollar ....
(w/Fig 2)      badly that I ....
               night you left me .....
(w/Fig 1)      cold.


VERSE 6
(w/Fig1)       But the thing that really .....
(w/Fig 2)      get me turning green .......
               being seen with me ......a
(w/Fig 1)      crime


PRECHORUS


CHORUS


VERSE 7
(w/Fig1)       4:30 in the morning, .....
(w/Fig 2)      still hear you're ....
               next day U'd be ....
(w/Fig 1)      me.


VERSE 8
(w/Fig1)       Some day soon I know it, .....
(w/Fig 2)      else in this great .....
               place where you will ....
(w/Fig 1)      girl.


PRECHORUS


CHORUS

CHORUS


OUTRO
(not transcribed yet)

^Z

Almost there ...

Sign in to get your own page with links to favourite songs and more. You are just one click away...

Login with Facebook Login with Google