Log in

One click and you are in

Login with Facebook Login with Google

Why sign up and log in

Guitar Tabs Explorer
Roth David Lee bass tabs for Just a gigolo

Bass tabs

Just A Gigolo.btab
David Lee Roth
TablEdited by Poppamies

Tuning : E A D G 	Time Signature: 4/4

 tempo 124    |    |    |    |    |    |
|--------------------------------|--------5-------8-------5-----8-|
|--------------------------------|6-------------------------------|
|--------------------------------|--------------------------------|
|--------------------------------|--------------------------------|

 |    |    |    |    |    |    |    |
|----------------8-------8-------|--------5-----5-8-------5-----8-|
|8-------8-----------------------|6-------------------------------|
|--------------------------------|--------------------------------|
|--------------------------------|--------------------------------|

 |    |    |    |    |    |    |    |
|----------------8-------8-------|--------5-----5-8-------5-----8-|
|8-------8-----------------------|6-------------------------------|
|--------------------------------|--------------------------------|
|--------------------------------|--------------------------------|

 |    |    |    |    |    |    |    |
|--------5-------8-------5-------|----------------4-------4-------|
|6-------------------------------|6-------6-----------------------|
|--------------------------------|--------------------------------|
|--------------------------------|--------------------------------|

 |    |    |    |    |    |    |    |
|----------------8---------------|--------------------------------|
|8-------8---------------8-------|----------------8-------8-------|
|--------------------------------|6-------6-----------------------|
|--------------------------------|--------------------------------|

 |    |    |    |    |    |    |    |
|--------------------------------|--------6-------5---------------|
|----------------8-------8-------|------------------------8-------|
|6-------6-----------------------|6-------------------------------|
|--------------------------------|--------------------------------|

 |    |    |    |    |    |    |    |
|--------------------------------|--------------------------------|
|6-------------------------------|------------------------3-----3-|
|--------8-----8-6---------------|--------3-------6---------------|
|------------------------8-------|4-------------------------------|

 |    |    |    |    |    |    |    |
|--------------------------------|--------------------------------|
|4-------------------------------|--------------------------------|
|--------3-------1---------------|----------------3---------------|
|------------------------2-------|1-------1---------------1-------|

 |    |    |    |    |    |    |    |
|3-------------------------------|--------------------------------|
|--------6-------3---------------|--------------------------------|
|------------------------4-------|----------------7-------7-------|
|--------------------------------|6-------6-----------------------|

 |    |    |    |    |    |    |    |
|--------------------------------|--------------------------------|
|--------------------------------|--------------------------------|
|6-------6-------8-------8-------|----------------6-------6-------|
|--------------------------------|6-------6-----------------------|

 |    |    |    |    |    |    |    |
|--------------------------------|--------5-------8-------5-----8-|
|6-------5-----------------------|6-------------------------------|
|----------------8-------6-------|--------------------------------|
|--------------------------------|--------------------------------|

 |    |    |    |    |    |    |    |
|--------5-------8-------5-----8-|----------------4-------4-------|
|6-------------------------------|6-------6-----------------------|
|--------------------------------|--------------------------------|
|--------------------------------|--------------------------------|

 |    |    |    |    |    |    |    |
|----------------8---------------|--------------------------------|
|8-------8---------------8-------|----------------8-------8-------|
|--------------------------------|6-------6-----------------------|
|--------------------------------|--------------------------------|

 |    |    |    |    |    |    |    |
|--------------------------------|8-------6-------5---------------|
|----------------8-------8-------|------------------------8-------|
|6-------6-----------------------|--------------------------------|
|--------------------------------|--------------------------------|

 |    |    |    |    |    |    |    |
|--------------------------------|--------------------------------|
|6-------------------------------|------------------------3-------|
|--------8-------6-------3-------|--------3-------6---------------|
|--------------------------------|4-------------------------------|

 |    |    |    |    |    |    |    |
|--------6-------3---------------|----------------5---------------|
|4-----------------------4-------|3-------3---------------3-------|
|--------------------------------|--------------------------------|
|--------------------------------|--------------------------------|

 |    |    |    |    |    |    |    |
|3-------------------------------|--------------------------------|
|--------6-------3---------------|----------------2-------2-------|
|------------------------4-------|1-------1-----------------------|
|--------------------------------|--------------------------------|

 |    |    |    |    |    |    |    |
|----------------1---------------|--------------------------------|
|1-------1-----------3-----------|--------------------------------|
|--------------------------------|1-------------------------------|
|--------------------------------|--------------------------------|

 |    |    |    |    |    |    |    |
|--------------------------------|--------5-------8-------5-------|
|--------------------------------|6-------------------------------|
|--------------------------------|--------------------------------|
|--------------------------------|--------------------------------|

 |    |    |    |    |    |    |    |
|--------------------------------|--------------------------------|
|6-------5-------4-------3-------|------------------------0-------|
|--------------------------------|--------0-------3---------------|
|--------------------------------|1-------------------------------|

 |    |    |    |    |    |    |    |
|----------------2-------5-------|--------5-------6-------7-------|
|3-------5-----5-----------------|8-----8-------------------------|
|--------------------------------|--------------------------------|
|--------------------------------|--------------------------------|

 |    |    |    |    |    |    |    |
|8-------6-----6-5---------------|--------------------------------|
|------------------------8-------|6-------------------------------|
|--------------------------------|--------8-------6-------3-------|
|--------------------------------|--------------------------------|

 |    |    |    |    |    |    |    |
|--------------------------------|--------5-------8-------5-------|
|------------------------3-------|6-------------------------------|
|--------3-------6---------------|--------------------------------|
|4-------------------------------|--------------------------------|

 |    |    |    |    |    |    |    |
|--------------------------------|--------------------------------|
|6-------5-------4-------3-------|3-----------------------0-------|
|--------------------------------|--------0-------3---------------|
|--------------------------------|--------------------------------|

 |    |    |    |    |    |    |    |
|----------------2-------5-------|3-------3-----------------------|
|3-------5-----------------------|----------------3-------3-------|
|--------------------------------|--------------------------------|
|--------------------------------|--------------------------------|

 |    |    |    |    |    |    |    |
|3-------3-----------------------|--------------------------------|
|----------------3-------3-------|----------------8-------8-------|
|--------------------------------|6-------6-----------------------|
|--------------------------------|--------------------------------|

 |    |    |    |    |    |    |    |
|--------6-------5---------------|--------5-------8-------5-------|
|------------------------8-------|6-------------------------------|
|6-------------------------------|--------------------------------|
|--------------------------------|--------------------------------|

 |    |    |    |    |    |    |    |
|--------5-------8-------5-----8-|--------------------------------|
|6-------------------------------|--------3-------6-------3-------|
|--------------------------------|4-------------------------------|
|--------------------------------|--------------------------------|

 |    |    |    |    |    |    |    |
|--------------------------------|--------2-------5-------2-------|
|--------3-------6-------3-----6-|3-------------------------------|
|4-------------------------------|--------------------------------|
|--------------------------------|--------------------------------|

 |    |    |    |    |    |    |    |
|--------2-------5-------2-------|3-------------------------------|
|3-------------------------------|--------------------------------|
|--------------------------------|--------------------------------|
|--------------------------------|--------------------------------|

 |    |    |    |    |    |    |    |
|--------------------------------|--------5-------8-------5-----8-|
|--------------------------------|6-------------------------------|
|--------------------------------|--------------------------------|
|--------------------------------|--------------------------------|

 |    |    |    |    |    |    |    |
|1-------0-----------------------|--------------------------------|
|----------------4-------3-------|--------------------------------|
|--------------------------------|--------0-------3-------0-----3-|
|--------------------------------|1-------------------------------|

 |    |    |    |    |    |    |    |
|----------------2-------5-------|--------------------------------|
|3-------5-----------------------|--------------------------------|
|--------------------------------|--------------------------------|
|--------------------------------|--------------------------------|

http://www.geocities.com/jani_bjorklund/janis.html

Almost there ...

Sign in to get your own page with links to favourite songs and more. You are just one click away...

Login with Facebook Login with Google