Log in

One click and you are in

Login with Facebook Login with Google

Why sign up and log in

Guitar Tabs Explorer
Nino Rota tabs for Brucia la terra

Guitar tabs

( ) = don't play note


[intro]
|-------------3------|------------3-------|
|---------4-----4----|---------4-----4----|
|-----5-----5--------|-----5-----5--------|
|---5---5------------|---5---5------------|
|-3------------------|-3------------------|
|--------------------|--------------------|
Brucia la luna n'cielu, A chord diagramE MajorE ju bruciu d'amuri,

|--------------------|--------------------|-------------3------|-------------3------|
|---------4----------|--------------------|---------4-----4----|---------4-----4----|
|-----5-----5---5----|---------5----------|-----5-----5--------|-----5-----5--------|
|---5---5-----5------|-----6-----6---6----|---5---5------------|---5---5------------|
|-3------------------|---6---6-----6------|-3------------------|-3------------------|
|--------------------|-4------------------|--------------------|--------------------|

Focu ca si consuma

|--------------------|--------------------|--------------------|--------------------|
|---------4----------|---------1----------|-------------1------|-------------1------|
|-----5-----5---5----|-----3-----3---3----|---------1-----1----|---------1-----1----|
|---5---5-----5------|---2---2-----2------|-----3-----3--------|-----3-----3--------|
|-3------------------|-3------------------|---3---3------------|---3---3------------|
|--------------------|--------------------|-1------------------|-1------------------|

L'anima chianci...

|------------------------------|-------------3------|-------------3------|
|-------3-------3--------------|---------4-----4----|---------4-----4----|
|-----4---4---4----------4-----|-----5-----5--------|-----5-----5--------|
|---5-------5---------5--------|---5---5------------|---5---5------------|
|-------------------5---5------|-3------------------|-3------------------|
|-3---------------3------------|--------------------|--------------------|

Non si da paci...
Lu tempu passa...

|--------------------|--------------------|-------------3------|-------------3------|
|---------3----------|---------3----------|---------4-----4----|---------4-----4----|
|-----4-----4---4----|-----4-----4---4----|-----5-----5--------|-----5-----5--------|
|---5---5-----5------|---5---5-----5------|---5---5------------|---5---5------------|
|--------------------|--------------------|-3------------------|-3------------------|
|-3------------------|-3------------------|--------------------|--------------------|

Ma non agghiorna Non c'e
mai ...

|----------6-----|----------6-----|----------6---------|----------6---------|
|----------6-----|----------6-----|----------8---------|----------8---------|
|----------7-----|----------7-----|-----8----8--8------|-----8----8--8------|
|-----8----8--8--|-----8----8--8--|---8---8--8----8----|---8---8--8----8----|
|---8---8--8----8|---8---8--8----8|-6--------6---------|-6--------6---------|
|-6--------6-----|-6--------6-----|--------------------|--------------------|

... suli Sidda non .... Brucia
la ...

|---------(5)----|---------(5)----|---------(3)--------|---------(3)--------|
|----------7-----|----------7-----|----------3---------|----------3---------|
|-----7----7--7--|-----7----7--7--|-----4----4--4------|-----4----4--4------|
|---7---7--7----7|---7---7--7----7|---5---5--5----5----|---5---5--5----5----|
|-5--------5-----|-5--------5-----|----------5---------|----------5---------|
|----------------|----------------|-3--------3---------|-3--------3---------|

... Terra mia

|-------------3------|--------------------|-------------3------|-------------3-----|
|---------4-----4----|--------------------|---------4-----4----|---------4-----4---|
|-----5-----5--------|---------5----------|-----5-----5--------|-----5-----5-------|
|---5---5------------|-----6-----6---6----|---5---5------------|---5---5-----------|
|-3------------------|---6---6-----6------|-3------------------|-3-----------------|
|--------------------|-4------------------|--------------------|-------------------|

Cchi siti....

|-------------3------|--------------------|--------------------|--------------------|
|---------4-----4----|---------1----------|-------------1------|---------1----------|
|-----5-----5--------|-----3-----3---3----|---------1-----1----|-----------1---1----|
|---5---5------------|---2---2-----2------|-----3-----3--------|-----3-------3------|
|-3------------------|-3------------------|---3---3------------|---3---3------------|
|--------------------|--------------------|-1------------------|-1------------------|

Acu la ... La me canzuni Si
no c'e

|---------(3)--------|--------------------|--------------------|--------------------|
|----------3---------|---------3----------|---------4----------|---------4----------|
|-----4----4--4------|-----4-----4---4----|-----5-----5---5----|-----5-----5---5----|
|---5---5--5----5----|---5---5-----5------|---5---5-----5------|---5---5-----5------|
|----------5---------|--------------------|-3------------------|-3------------------|
|-3--------3---------|-3------------------|--------------------|--------------------|

nuddu ... A chord diagramA augmentedA lu barcuni

|---------(3)--------|---------(3)--------|-3------3--3----|-3---3--3----3---3--3----|
|----------3---------|----------3---------|-4------4--4----|-4---4--4----4---4--4----|
|-----4----4--4------|-----4----4---------|-5------5--5----|-5---5--5----5---5--5----|
|---5---5--5----5----|---5---5--5---------|-5------5--5----|-5---5--5----5---5--5----|
|----------5---------|----------5---------|-3------3--3----|-3---3--3----3---3--3----|
|-3--------3---------|-3--------3---------|----------------|-------------------------|

Any Questions: sacredisra8@hotmail.com

Other versions of Brucia La Terra

Brucia la terraChords

Almost there ...

Sign in to get your own page with links to favourite songs and more. You are just one click away...

Login with Facebook Login with Google