Log in

One click and you are in

Login with Facebook Login with Google

Why sign up and log in

Guitar Tabs Explorer
Ross Don tabs for Silversmith

Tabs

Silversmith - Don Ross

Transcription - Paul Millar


Tuning - DADGCF

Keycode - (letter) - section name
           (number) - harmonic
           h - hammer on
           p - pull off
           > - slide

Roadmap - AAB
  (A chord diagramA augmentedA)
|----------2-4-2-0---0-------------|
|--------0---------4---4p2---0-----|
|------0-------------------3---3p2-|
|----3-----------------------------|
|----------------------------------|
|--3---------------0---------------|


|-------------0-2-4->5----5-7->9-7--12-11--7------|
|----------0---------5--5--------7------7----7----|
|--------0-----------5-----------7------7---------|
|------0--------------------------------7---------|
|--3-1--------------------------------------------|
|--------------------5-5---------7----------------|


|--5----5-----------5------5---------|
|--5--8---7---5-----5--8>9---7---5---|
|--5--------5---5---5----------5---5-|
|------------------------------------|
|------------------------------------|
|--5-5--------------5-5--------------|
|--0---------------|
|------4---2----0--|
|----0---0---0---0-|
|------------------|
|--3---3---3-------|
|--------------5---|


(A chord diagramBB)
|---------------------|
|----0---0------------|
|---0---0-h2--3--3----|
|--3---3----3--3------|
|-----1---------------|
|-1--------3--3--3----|

variant
|----------2-h4-p2-p0-0--0--0-----|
|--------0-----------4--4--2--0---|
|------0---------------------3--2-|
|----3----------------------------|
|---------------------------------|
|--3--------------------0---------|


|-----------------------------2-h4-p2-p0-0--7--12-11--7-----|
|----------2-2----2-0---0--0------------4---7-----7-----7---|
|--------0-------0----3----0----------------7-----7---------|
|------0--------0------------------------7------------------|
|--0-1---------1-----------3--------------------------------|
|-------------------------------------------7-7-------------|


|--5----5-----------5------5---------|
|--5--8---7---5-----5--8>9---7---5---|
|--5--------5---5---5----------5---5-|
|------------------------------------|
|------------------------------------|
|--5-5--------------5-5--------------|


|--0---------------|
|------4---2----0--|
|----0---0---0---0-|
|------------------|
|--3---3---3-------|
|--------------5---|


Bridge
|-------7-7-9-11-11------(12)-----11-11---(12)-----------5-------0-----------|
|---(7)-----------0-----0----(12)-------0-----(12)---------4-------0---------|
|---(7)-----------0----0---------------0-----------------------------0-2-----|
|---(7)--------------------------------------------------------3-----------0-|
|-0----------------------------------------------------------3-----------0---|
|----0-----------10--10--------------10--------------------3-----------0-----|


|---0-0-2-4-4--5-0--0---------|
|------------------5-5--------|
|-------------0---------------|
|------------0----------------|
|-----------------------------|
|-----------5-----------------|

|---0------------------|
|--5-5--4-4--2-2--4----|
|--------0----0----0---|
|----------------------|
|--3----3----1---------|
|----------------5-----|
ⓘ Guitar tab for 'Silversmith' by, formed in 2000

Almost there ...

Sign in to get your own page with links to favourite songs and more. You are just one click away...

Login with Facebook Login with Google