Log in

One click and you are in

Login with Facebook Login with Google

Why sign up and log in

Guitar Tabs Explorer
Jeff Rosenstock bass tabs for State line

Bass tabs

Tuning: Standard (E A D G)

(7x)
G|-----------------------------------------------------------------|
D|-----------------------------------------------------------------|
A|-4-4-4-4-----------------------------------------6-6-6-6---------|
E|---------4-4-4-4-6-6-6-6-1-1-1-1-6-6-6-6-1-1-1-1---------4-4-4-4-|

Can I take a piece of you across the state line (2x)
G|---------------------------------------------------------|
D|---------------------------------------------------------|
A|-4-4-4-4---------8-8-8-8---------4-4-4-4-----------------|
E|---------4-4-4-4---------5-5-5-5---------2-2-2-2-4-4-4-4-|

(2x)
G|-----------------------------------------------------------------|
D|-----------------------------------------------------------------|
A|-4-4-4-4-----------------------------------------6-6-6-6---------|
E|---------4-4-4-4-6-6-6-6-1-1-1-1-6-6-6-6-1-1-1-1---------4-4-4-4-|

Can I take a piece of you across the state line (2x)
G|---------------------------------------------------------|
D|---------------------------------------------------------|
A|-4-4-4-4---------8-8-8-8---------4-4-4-4-----------------|
E|---------4-4-4-4---------5-5-5-5---------2-2-2-2-4-4-4-4-|

G|-----------------------------------------------------------------|
D|-----------------------------------------------------------------|
A|-9-9-9-9---------9-9-9-9---------9-9-9-9---------9-9-9-9---------|
E|---------6-6-6-6---------9-9-9-9---------6-6-6-6---------9-9-9-9-|

G|-------------------------------------------------------------------------------------|
D|-----------------7-7-----------------------------7-7---------------------------------|
A|-9-9-9-9-------------9-9-8-8-8-8-9-9-9-9-------------6-6-4-4-6-4-4-6-4-4-6-4-4-6--4\-|
E|---------6-6-6-6-------------------------6-6-6-6-------------------------------------|


************************************

| \ Slide down

************************************

Almost there ...

Sign in to get your own page with links to favourite songs and more. You are just one click away...

Login with Facebook Login with Google