Log in

One click and you are in

Login with Facebook Login with Google

Why sign up and log in

Guitar Tabs Explorer
Jeff Rosenstock bass tabs for Ohio porkpie

Bass tabs

Tuning: Standard (E A D G)

When I see you face after the flight home...
G|----------------------------------------------------------------------------------|
D|------------------------------------------------------------------------------12\-|
A|---------------------5-5-5-5/10-10-10-10---------------------5-5-5-5/10-10-10-----|
E|-5-5-5-5/17-17-17-17---------------------5-5-5-5/17-17-17-17----------------------|
I ditched the rental...
G|--------------------------------------------------------------------------------|
D|-----4-4---4-----7------4-4---4----------------4-4---4-----7--------------------|
A|-5-5-----5---5------5-5-----5---5----------5-5-----5---5----------9-9-----10-10-|
E|---------------5------------------3-3-3-3----------------5----7-7-----8-8-------|

G|---------------------------------------------------------------------------------|
D|-----4-4---4-----7------4-4---4----------------4-4---4-----7---------------------|
A|-5-5-----5---5------5-5-----5---5----------5-5-----5---5---------------------4-5-|
E|---------------5------------------3-3-3-3----------------5---2-2-2-2-3-3-5-7-----|

When I see your face after the flight home...
G|---------------------------------------------------------------------------------------------|
D|---------------------------------------------------------------------5-8-8-8-----------------|
A|---------------------5-5-5-5/10-10-10-10-7-7-7-7/12-12-12-12-5-5-5-5---------5-5-5-5---------|
E|-5-5-5-5/17-17-17-17-----------------------------------------------------------------3-3-6-6-|

Prepare for the landing and prepare to vaguely accused...
G|-------------------------------------------------------------|
D|---------------------------4-7---4-5---4-5-4-------5-4-7-5-4-|
A|-----2-------4---2-3-5-5-7-----7-----7-------7---------------|
E|-0-3---3-2-5---3-------------------------------7-7-----------|

G|-----------------------------------------------|
D|---------------------------4-7-----------------|
A|-----2-------4---2-3-5-5-7-----7-7-7-7-9-9-9-9-|
E|-0-3---3-2-5---3-------------------------------|

If I got to go outside...
G|-------------------------------------------------------------------------|
D|---------------------------------------------7-7-7-7---------------------|
A|-5-5-5-5---------5-5-5-5-10-10-10-10-5-5-5-5---------9-9-9-9-10-10-10-10-|
E|---------5-5-5-5---------------------------------------------------------|

And at the bag claim, with eyes peeled for tattered tags...
G|--------------------------------------------------------------------------------------------|
D|-----4-4---4-----7------4-4---4----------------4-4---4-----7------4-4---4-------------------|
A|-5-5-----5---5------5-5-----5---5----------5-5-----5---5------5-5-----5---5-----------------|
E|---------------5------------------3-3-3-3----------------5------------------3-3-3-3-3-3-3-3-|

And through the families...
G|-------------------------------------------------------------|
D|-----4-4---4-----7------4-4---4----------------4-4---4-----7-|
A|-5-5-----5---5------5-5-----5---5----------5-5-----5---5-----|
E|---------------5------------------3-3-3-3----------------5---|

And nobody wishes for the things that they already have...
G|-------------------------------------------------------------------------------------------------|
D|-----4-4-----4-4---------------------4-4-----4-4---------------------4-4-----4-4-5-5-4-4---------|
A|-5-5-----5-5---------5-5-----5-5-5-5-----5-5---------4-4-----4-4-5-5-----5-5-------------7-7-4-4-|
E|-----------------3-3-----3-3---------------------5-5-----5-5-------------------------------------|

(3x)
G|-----------------------------------------------------------------|
D|-----4-4-----4-4---------------------4-4-----4-4-5-5-4-4---------|
A|-5-5-----5-5---------4-4-----4-4-5-5-----5-5-------------7-7-4-4-|
E|-----------------5-5-----5-5-------------------------------------|

You're the only person that I wanted like, like YEAH!!!
G|-------------------------------------------|
D|-----4-4-----4-4---------------------------|
A|-5-5-----5-5---------4-4-----4-4-----------|
E|-----------------5-5-----5-5-----8-7-5-3-2-|

Ohio Turnpike!!!
G|-----------------------------------------------------------------------------------|
D|-------------------------------------------------------------10-10-10-10-----------|
A|-5-5-5-5/12-12-12-12-5-5-5-5/10-10-12-12-5-5-5-5/12-12-12-12-------------10-10-9-7-|
E|----------------------------------------------------------------------------------- |

G|----------------------------------------------------------------------------------------------|
D|-----------------------------------------------------------------7-7-------------7-7----------|
A|-5-5-5-5/12-12-12-12-5-5-5-5/10-10-12-12-5-5-5-5/12-12-12-12-9-9-----9-10-10-9-9-----9-10-9-7-|
E|----------------------------------------------------------------------------------------------|

YEAHH!!!!
G|----------------------------------------------------------------------------------------------------------|
D|------------------------------------------------------------------------------------------5-5-----5-5-----|
A|-10-10-10-10-10-------9-9-9-9-9-9-7-7-7-7-----------------6-6-6-6-5-5-5-5-10-10-10-10-7-7-----7-7-----7-7-|
E|----------------10-10---------------------7-7-7-7-6-6-6-6-------------------------------------------------|

G|--------------------------------------------------------------------------------------------------------|
D|----------------------------------------9-9-9-9-8-8-8-8-----------------------------5-5-----5-5-7-5-4---|
A|-10-10-10-10-10-------9-9-9-9-9-9-7-7-7-----------------7-7-7-7-5-5-5-5-9-9-9-9-7-7-----7-7-----------7-|
E|----------------10-10-----------------------------------------------------------------------------------|

I miss coming home to you...
G|-----------------------------------------------------------|
D|-----7-5-4-------------------------7-5-4-------------7/9-7-|
A|-5-5---------5-7-5-----7-7-----5-5---------5-7-5-----------|
E|-----------7-------3-3-----3-3-----------7-------3-3-------|

G|-------------------------------------------------------------------|
D|-----7-5-4-------------------------7-5-4-------------7/9-7-5-5-4---|
A|-5-5---------5-7-5-----7-7-----5-5---------5-7-5-----------------7-|
E|-----------7-------3-3-----3-3-----------7-------3-3---------------|

I hate coming home
G|-----------------------------------------------------------------------------------|
D|------------------8--8--8-----------------------------8--8-14-14-12-12----12-------|
A|-5-5-5-7---------10-10-10-7-7-10-10-5-5-5-7----------10-10-------------14----14-12-|
E|---------7-7-7-7----------------------------7-7-10-7-------------------------------|

I hate coming home
G|-------------------------------------------------------------|
D|-----7-5-4---------------------9-7---------7-5-4---------9-5-|
A|-5-5---------5-7-5-----7-7---------9-7-5-5---------5-7-5-----|
E|-----------7-------3-3-----3-3-------------------7-----------|

FINALE
G|-7--------7--------7-----7-|
D|-7--9--5--7--9--5--7--9--7-|
A|-5--9--5--5--9--5--5--9--5-|
E|----7--3-----7--3-----7----|


************************************

| \ Slide down
| / Slide up

************************************

Almost there ...

Sign in to get your own page with links to favourite songs and more. You are just one click away...

Login with Facebook Login with Google