Log in

One click and you are in

Login with Facebook Login with Google

Why sign up and log in

Guitar Tabs Explorer
Jeff Rosenstock bass tabs for Hellllhoooole

Bass tabs

Tuning: Standard (E A D G)

They would pluck us from the life we're living...
G|------------------------------------------------------------------------------------------|
D|-----------------------------------------------------------------------3------------------|
A|-3-------------3-5--0-5-5-------3--------3----3-3--5--------2-3---5--5---5-3-2------------|
E|-----5--0-5-5--------------3-1----1-1--3----3--------5--3-5-----5--------------1--3--5--7-|

WE DON'T WANNA LIVE INSIDE A HELLLHOOOLLLEE...
G|-----------------------------------------------------------------------------------------------------|
D|-----------------------------------------------------------------------------------------------------|
A|-5-5-5-5-5-5-5-5-----------------3-3-3-3-3-3-3-3-7-7-7-7-7-7-7-7-5-5-5-5-5-5-5-5---------------------|
E|-----------------3-3-3-3-3-3-3-3-------------------------------------------------3-3-3-3-15-15-15-15-|

She knows we're terrified of change...
G|-----------------|
D|-----------------|
A|-8-7-8-7-8-7---7-|
E|-------------8---|

WE DON'T HAVE TO LIVE INSIDE A HELLLHOOOLLLEE...
G|---------------------------------------------------------------------|
D|---------------------------------------------------------------5---5-|
A|-5-5-5-5-5-5-5-5---------------------3-3-3-3-7-5-3---7-7-7-7-7---7---|
E|-----------------3-3-3-3-15-15-15-15---------------7-----------------|

WE DON'T WANNA LIVE INSIDE A HELLLHOOOLLLEE...
G|--------------------------------------------------------------------------------|
D|---------------------------------------------------------------12-12-12-10------|
A|-5-5-5-5-8-7-5------------------------------------------9----9-------------12-9-|
E|---------------7-3-3-3-3-15-15-15-15-5-5-5-5-5-5-5-5-10---10--------------------|

WE DON'T WANNA LIVE INSIDE A HELLLHOOOLLLEE...
G|-----------------------------------------|
D|-----------------------------------------|
A|-5-5-5-5-5-5-5-5-10-10-10-10-10-10-10-10-|
E|-----------------------------------------|

Almost there ...

Sign in to get your own page with links to favourite songs and more. You are just one click away...

Login with Facebook Login with Google