Log in

One click and you are in

Login with Facebook Login with Google

Why sign up and log in

Guitar Tabs Explorer
Linda Ronstadt tabs for Heatwave

Guitar tabs with lyrics

Linda Ronstadt
Heatwave


  Intro:

A chord diagramD MajorD  while playing A chord diagramD MajorD take your pinky on and off the 3rd fret on the 1st
string     NOTE do that for all D's

  then play
  riff
  |-------------|
  |-----0-------|
  |--2-----0----|
  |-----------4-|
  |-------------|
  |-------------|

  Here's the chords which are like the whole song

  em  f#m  bm  em  f#m  bm  em  f#m  g  a  d

  intro
  riff
  chords
  riff
  chords
  during solo: riff
               chords
  riff
  chords
  riff
  chords
  end
  |-------------|
  |-----0-------|
  |--2-----0----|  em  f#m  bm
  |-----------4-|
  |-------------|
  |-------------|

  solo
  |--12fb--12--12-----------------------------12--17--12fb--12p10--12p10----|
  |----------------12--10--12--10--12--10/12------------------------------12|
  |-------------------------------------------------------------------------|
  |-------------------------------------------------------------------------|
  |-------------------------------------------------------------------------|
  |-------------------------------------------------------------------------|

  |----------------------------------7-------------10p7--9p7--7p5-----------|
  |--10---------------------------7-----10--7--10------------------7p5--7p5-|
  |------11--9--12------7--7--9--------------------------------------------|
  |------------------/9-----------------------------------------------------|
  |-------------------------------------------------------------------------|
  |-------------------------------------------------------------------------|

  |--------------------------------------------------------------10-----|
  |---------------------------7--10--7--------8--7--5--8--7--12------10-|
  |--7--4^^^^^^--/9--7--7--9------------7-------------------------------|
  |----------------------------------------7----------------------------|
  |---------------------------------------------------------------------|
  |---------------------------------------------------------------------|

  |--/7--7--7--/7--7--7--/7--7--7--/7--7--7--/7--7--7--/7--7--7--5-|
  |--/7--7--7--/7--7--7--/7--7--7--/7--7--7--/7--7--7--/7--7--7--5-|
  |-----------------------------------------------------------------|
  |-----------------------------------------------------------------|
  |-----------------------------------------------------------------|
  |-----------------------------------------------------------------|


                             well thats all enjoy                Andy

ⓘ Guitar tab for 'Heatwave' by Linda Ronstadt, a female pop artist from T son, Arizona, USA. Linda Ronstadt was born in 1946. Linda Ronstadt is known for her happy rock/pop music.

Almost there ...

Sign in to get your own page with links to favourite songs and more. You are just one click away...

Login with Facebook Login with Google