Log in

One click and you are in

Login with Facebook Login with Google

Why sign up and log in

Guitar Tabs Explorer
Mark Ronson bass tabs for Late night feelings

Bass tabs

Tuning: Standard (E A D G)


Verse 1:

G|--------------------------------------|
D|--------------------------------------|
A|-7-----7--5----5--2---0-2--3---2-3--5-|
E|-----7--------------------------------|

G|--------------------------------------|
D|--------------------------------------|
A|-7----7--5---2-5--2----2--3-----3-----|
E|-----------------------------3-----3--|
Pre-Chorus:

G|------------------------------------------|
D|------------------------------------------|
A|-3-3-----3----------3-3-----3-----------2-|
E|-------5---5-5---5--------5---5-5---3-5---|

G|-------------------------------------------|
D|-------------------------------------------|
A|-3-3-----3----------3-3------------5-7---7-|
E|-------5---5-5---5---------5---5-8-----7---|


Chorus:

G|-----------------------------------------------------|
D|-----------------------------------------------------|
A|-----7---5-----5-------0-2---2-2-3-------5-7---7-----|
E|---7---7-----7---5-7-------3---------5-7-----7---7-0-|

G|---------------------------------------------|
D|---------------------------------------------|
A|-----7---5-----5---------2---3-------5-7---7-|
E|---7---7-----7---5-7---3---3-----5-7-----7---|

Post-Chorus:

G|-------------------------------------------------|
D|-------------------------------------------------|
A|-----7---5-----5-------0-2---2-2-3-------5-7---7-|
E|---7---7-----7---5-7-------3---------5-7-----7---|

Verse 2:

G|--------------------------------------|
D|--------------------------------------|
A|-7-----7--5----5--2---0-2--3---2-3--5-|
E|-----7--------------------------------|

G|--------------------------------------|
D|--------------------------------------|
A|-7----7--5---2-5--2----2--3-----3-----|
E|-----------------------------3-----3--|


Pre-Chorus:

G|------------------------------------------|
D|------------------------------------------|
A|-3-3-----3----------3-3-----3-----------2-|
E|-------5---5-5---5--------5---5-5---3-5---|

G|-------------------------------------------|
D|-------------------------------------------|
A|-3-3-----3----------3-3------------5-7---7-|
E|-------5---5-5---5---------5---5-8-----7---|


Chorus:

G|---------------------------------------------|
D|---------------------------------------------|
A|-----7---5-----5-----------------5-7---7-----|
E|---7---7-----7---5-7---------5-7-----7---7-0-|

G|---------------------------------------------|
D|---------------------------------------------|
A|-----7---5-----5---------2---3-------5-7---7-|
E|---7---7-----7---5-7---3---3-----5-7-----7---|

Post-Chorus:

G|---------------------------------------------|
D|---------------------------------------------|
A|-----7---5-----5-----------------5-7---7-----|
E|---7---7-----7---5-7---------5-7-----7---7-0-|

G|---------------------------------------------|
D|---------------------------------------------|
A|-----7---5-----5---------2---3-------5-7---7-|
E|---7---7-----7---5-7---3---3-----5-7-----7---|

G|---------------------------------------------|
D|---------------------------------------------|
A|-----7---5-----5-----------------5-7---7-----|
E|---7---7-----7---5-7---------5-7-----7---7-0-|

G|---------------------------------------------|
D|---------------------------------------------|
A|-----7---5-----5---------2---3---------------|
E|---7---7-----7---5-7---3---3-----------------|


Bridge:
Weird electronic effect

G|---------------------------------------5-|
D|-----------------------------7-7-7-------|
A|-3---3-2--------2-3----3-----------3-----|
E|---------5----5-----------5--------------|

G|--5-----------------------------------|
D|--------------------------------------|
A|3-----3------------3----3-2-----------|
E|---------5----5--5----------5----5--5-|

G|----------------|
D|----------------|
A|----------------|
E|-0--------------|

Rest

Post-Chorus:

G|---------------------------------------------|
D|---------------------------------------------|
A|-----7---5-----5-----------------5-7---7-----|
E|---7---7-----7---5-7---------5-7-----7---7-0-|

G|---------------------------------------------|
D|---------------------------------------------|
A|-----7---5-----5---------2---3-------5-7---7-|
E|---7---7-----7---5-7---3---3-----5-7-----7---|

Repeat until fade out

Almost there ...

Sign in to get your own page with links to favourite songs and more. You are just one click away...

Login with Facebook Login with Google