Log in

One click and you are in

Login with Facebook Login with Google

Why sign up and log in

Guitar Tabs Explorer
Mark Ronson bass tabs for Knock knock knock

Bass tabs

Intro:

G|---------------------------------------------------------------------------|
D|---------------------------------------------------------------------------|
A|---------------------------------------------------------------------------|
E|---------------------------------------------------------------------------|

G|---------------------------------------------------------------------------|
D|---------------------------------------------------------------------------|
A|---------------------------------------------------------------------------|
E|---------------------------------------------------------------------------|

Verse 1:

G|------------------|--------------------|-------x-5--------|---------------------|
D|------7-----------|-------7------------|----5-------------|3-3-3----------------|
A|---7--------------|---5----------------|/3----------------|------3--3-----------|
E|5--------------5-4|3-3--3---------3-5-3|---x--------------|-----------1---0-1-3-|


G|------------------|--------------------|-------x-5/7------|---------------------------|
D|-------7----------|-------7------------|----5-------------|--------------------3------|
A|---7--------------|---5----------------|s3----------------|---------3--3--5--5---5-3--|
E|5-5--5--------12\-|3-3--3---------3-5-3|---x------------0-|1--1-5--5-----------------x|


G|------------------|--------------------|-------x-5/7------|---------------------------|
D|-------7----------|-------7------------|----5-------------|--------------------3------|
A|---7--------------|---5----------------|s3----------------|---------3--3--5--5---5-3--|
E|5-5--5--------12\-|3-3--3---------3-5-3|---x------------0-|1--1-5--5-----------------x|


G|------------------|--------------------|-------x-5/7------|---------------------------|
D|-------7\---------|-------7------------|----5-------------|--------------------3------|
A|---7--------------|---5----------------|s3----------------|---------3--3--5--5---5-3--|
E|5-5--5------------|3-3--3---------3-5-3|---x------------0-|1--1-5--5-----------------x|

G|------------------|--------------------|5-----5----------|----------------------|
D|-------7/9--------|-------7/9----------|--7-5---7--------|3-----3---------------|
A|---7--------------|---5----------------|-----------3-3---|--5-3-----5-----------|
E|5----5------------|3-------------------|-----------------|------------1-1-------|


G|------------------|--------------------|5-----5----------|----------------------|
D|-------7/9--------|-------7/9----------|--7-5---7--------|3-----3---------------|
A|---7--------------|---5----------------|-----------3-3---|--5-3-----5-----------|
E|5----5------------|3-------------------|-----------------|------------1-1-------|


G|------------------|--------------------|----------------|----------7--6-5-7---|
D|-------/7---5-----|---------/7---5-----|------/7--5-----|3-3-5-5-7------------|
A|------------------|--------------------|3---------------|---------------------|
E|5-----------------|3-------------------|----------------|---------------------|

G|---------------------|-----------------------|----------------|
D|-------/7---5--------|---------/7----5-------|----------------|
A|------7-------7-5-3--|------------5h7---7----|3---------------|
E|5-------------------5|3----------------------|----------------|

Almost there ...

Sign in to get your own page with links to favourite songs and more. You are just one click away...

Login with Facebook Login with Google