Log in

One click and you are in

Login with Facebook Login with Google

Why sign up and log in

Guitar Tabs Explorer
The Rolling Stones tabs for Wild horses

Guitar tabs with lyrics

Wild Horses


          Wild Horses                     ? Mick ?               (Once again, this is a STAGE
      By The Rolling Stones             ? Stevenson ?            VERSION, This is The Version
                                                                 they played with Dave Matthews
                                                                 at the St.Louis Show.)
    (OPEN A chord diagramG+G TUNING)
                                                (Ignore 6th string)

       Intro:
                  / / / / / /    / / / / / /      / / / / / /      / / / / / /
            D--5-------------------------------5--------------------------------|
            B--3---------------1---------------3-----------------1--------------|
            G-------------------------------------------------------------------|
            D------------------2---------------------------------2--------------|
            G------------------2---------------------------------2--------------|
            D-------------------------------------------------------------------|


                    / / / / / /
                   Palm it really quick when your doing the up and down strums.
            D----5--------------------------------------------------------------|
            B----3--------------------------------------------------------------|
            G-------------------------------------------------------------------|
            D-------------------------------------------------------------------|
            G-------------------------------------------------------------------|
            D-------------------------------------------------------------------|


        Verse:

                 / / / / / /   / / / / / /   / / / / / /    / / / / / /
            D---5------------5-------------5--------------5---------------------|
            B---3------------3-------------3--------------3---------------------|
            G-------------------------------------------------------------------|
            D---4--------------------------4------------------------------------|
            G---4--------------------------4------------------------------------|
            D-------------------------------------------------------------------|

                / / /    / / / /    / / / / / / /      (Repeat 2x) \/
            D-----------------------------7-------------------------------------|
            B-1-------5----------7--------9--7----------------------------------|
            G---------5----------7--------7--7----------------------------------|
            D-2-------5----------7--------8--7----------------------------------|
            G-2-------5----------7--------7--7----------------------------------|
            D-------------------------------------------------------------------|


      Chorus:    Wild       Horses                 Couldn’t Drag   Me Away..
                                                                           |
                                                                       2x \|/
                 / / /    / / /   / /  / /           / / /   / / / /
            D-------------------------------------------------------------------|
            B--1--------5-------7----7-9--7---------0-------11--------5-5-6-5---|
            G-----------5-------7----7-7--7---------0-------11--------5-5-5-5---|
            D--2--------5-------7----7-8--7---------0-------11--------5-5-7-5---|
            G--2--------5-------7----7-7--7---------0-------11--------5-5-5-5---|
            D-------------------------------------------------------------------|


       ¨This is The Part where The Solo starts....I dont know The Solo¨

               Repeat 4x..(End on X55550)
              / / / /   / / / / / /  (Strum slowly on they 5-3 Part)
          D-----------------------|--------5---------0s--0--0--0--0--------|
          B---5-------6-----------|--------3-------------------------------|      S=slide
          G---5-------5-----------|------------------4s--2--0--2--0--------|
          D---5-------7-----------|----------------------------------------|
          G---5-------5-----------|----------------------------------------|
          D-----------------------|----------------------------------------|
                                                Let ring ^          ^Let ring again


          End:

          D----------------------------------------------------------------|
          B----5-----------------------------------------------------------|
          G----5-----------------------------------------------------------|
          D----5-----------------------------------------------------------|
          G----5-----------------------------------------------------------|
          D----------------------------------------------------------------|



           Intro
           Verse 2x
           Chorus 2x
           Verse 2x
           Chorus 2x
           Solo Part
           Verse 2x

Other versions of Wild Horses

Wild horsesChords
Wild horses (Ver. 2)Chords
Wild horses (Ver. 3)Chords
Wild horses (Ver. 4)Chords
Wild horses chordsChords
Wild horses (Ver. 2)Tabs
Wild horses (Ver. 3)Tabs

Almost there ...

Sign in to get your own page with links to favourite songs and more. You are just one click away...

Login with Facebook Login with Google