Log in

One click and you are in

Login with Facebook Login with Google

Why sign up and log in

Guitar Tabs Explorer
The Rolling Stones bass tabs for Wild horses

Bass tabs with lyrics

Tabbed by Mescalino


Acoustic Bass
   W          W          W
G||-------------------|-------------------|-------------------|
D||-------------------|-------------------|-------------------|
A||-------------------|-------------------|-------------------|
E||-------------------|-------------------|--3----------------|
 H    Q  S S E   W          H    Q  Q
-----------------------|-------------------|---------------------|
-----------------------|-------------------|---------------------|
-----------------------|-------------------|--2--------2----2----|
------------------0-3--|--3----------------|---------------------|


 H    Q  Q    H    Q  Q    H    Q  Q
---------------------|---------------------|---------------------|
---------------------|---------------------|---------------------|
---------------------|--2--------2----2----|---------------------|
--3--------3----3----|---------------------|--3--------3----3----|


 H    Q  E E   H    Q  Q    H    Q  Q
----------------------|---------------------|---------------------|
----------------------|----------------0----|---------------------|
--0--------0----0-----|--3--------3---------|---------------------|
-------------------3--|---------------------|--3--------3----3----|


 H    Q  Q    H    Q  Q    H    Q  Q
---------------------|---------------------|---------------------|
--0--------0---------|---------------------|---------------------|
----------------3----|--2--------2----2----|---------------------|
---------------------|---------------------|--3--------3----3----|

 H    Q  Q    H    Q  Q    H    Q  E E
---------------------|---------------------|----------------------|
---------------------|---------------------|----------------------|
--2--------2----2----|---------------------|--0--------0----0-----|
---------------------|--3--------3----3----|-------------------3--|


 H    Q  Q    H    Q  E E   Q  Q  Q  Q
---------------------|----------------------|----------------------|
----------------0----|----------------------|--0----0----0----0----|
--3--------3---------|----------------0-----|----------------------|
---------------------|--3--------3-------3--|----------------------|


 Q  E. S E E E E   Q  E. S E E E E   Q  Q  Q  E E
-------------------------|-------------------------|-----------------------|
-------------------------|-------------------0--0--|--------------------0--|
--0----0---0-0--0--0-----|--3----3---3-3--3--------|-----------------------|
----------------------3--|-------------------------|--3----3----1----1-----|


 Q  E. S E E E E   Q  E. S Q  E E   Q  E. S E E E E
-------------------------|------------------------|-------------------------|
-------------------------|------------------------|-------------------0--0--|
--3----3---3-3--3--2--2--|--0----0---0-0----0-----|--3----3---3-3--3--------|
-------------------------|---------------------3--|-------------------------|


 Q  Q  Q  E E   W          H    Q  Q
-----------------------|-------------------|---------------------|
--------------------0--|-------------------|---------------------|
-----------------------|--3----------------|--2--------2----2----|
--3----3----1----1-----|-------------------|---------------------|


 H    Q  Q    H    Q  Q    H    Q  Q
---------------------|---------------------|---------------------|
---------------------|---------------------|---------------------|
---------------------|--2--------2----2----|---------------------|
--3--------3----3----|---------------------|--3--------3----3----|


 H    Q  E E   H    Q  Q    H    Q  Q
----------------------|---------------------|---------------------|
----------------------|----------------0----|---------------------|
--0--------0----0-----|--3--------3---------|---------------------|
-------------------3--|---------------------|--3--------3----3----|


 H    Q  Q    H    Q  Q    H    Q  Q
---------------------|---------------------|---------------------|
--0--------0---------|---------------------|---------------------|
----------------3----|--2--------2----2----|---------------------|
---------------------|---------------------|--3--------3----3----|


 H    Q  Q    H    Q  Q    H    Q  E E
---------------------|---------------------|----------------------|
---------------------|---------------------|----------------------|
--2--------2----2----|---------------------|--0--------0----0-----|
---------------------|--3--------3----3----|-------------------3--|


 H    Q  Q    H    Q  E E   Q  Q  Q  Q
---------------------|----------------------|----------------------|
----------------0----|----------------------|--0----0----0----0----|
--3--------3---------|----------------0-----|----------------------|
---------------------|--3--------3-------3--|----------------------|


 Q  E. S E E E E   Q  E. S E E E E   Q  Q  Q  E E
-------------------------|-------------------------|-----------------------|
-------------------------|-------------------0--0--|--------------------0--|
--0----0---0-0--0--0-----|--3----3---3-3--3--------|-----------------------|
----------------------3--|-------------------------|--3----3----1----1-----|


 Q  E. S E E E E   Q  E. S Q  E E   Q  E. S E E E E
-------------------------|------------------------|-------------------------|
-------------------------|------------------------|-------------------0--0--|
--3----3---3-3--3--2--2--|--0----0---0-0----0-----|--3----3---3-3--3--------|
-------------------------|---------------------3--|-------------------------|


 Q  Q  Q  E E   W          W
-----------------------|-------------------|-------------------|
--------------------0--|-------------------|-------------------|
-----------------------|--3----------------|-------------------|
--3----3----1----1-----|-------------------|-------------------|


 W          W          W          W
-------------------|-------------------|-------------------|-------------------|
-------------------|-------------------|-------------------|-------------------|
-------------------|-------------------|-------------------|-------------------|
-------------------|-------------------|-------------------|-------------------|


 W          H    Q  Q    H    Q  Q
-------------------|---------------------|---------------------|
-------------------|---------------------|---------------------|
-------------------|--2--------2----2----|---------------------|
-------------------|---------------------|--3--------3----3----|


 H    Q  Q    H    Q  Q    H    Q  E E
---------------------|---------------------|----------------------|
---------------------|---------------------|----------------------|
--2--------2----2----|---------------------|--0--------0----0-----|
---------------------|--3--------3----3----|-------------------3--|


 H    Q  Q    H    Q  Q    H    Q  Q
---------------------|---------------------|---------------------|
----------------0----|---------------------|--0--------0---------|
--3--------3---------|---------------------|----------------3----|
---------------------|--3--------3----3----|---------------------|


 H    Q  Q    H    Q  Q    H    Q  Q
---------------------|---------------------|---------------------|
---------------------|---------------------|---------------------|
--2--------2----2----|---------------------|--2--------2----2----|
---------------------|--3--------3----3----|---------------------|


 H    Q  Q    H    Q  E E   H    Q  Q
---------------------|----------------------|---------------------|
---------------------|----------------------|----------------0----|
---------------------|--0--------0----0-----|--3--------3---------|
--3--------3----3----|-------------------3--|---------------------|


 H    Q  E E   Q  Q  Q  Q    Q  E. S E E E E
----------------------|----------------------|-------------------------|
----------------------|--0----0----0----0----|-------------------------|
----------------0-----|----------------------|--0----0---0-0--0--0-----|
--3--------3-------3--|----------------------|----------------------3--|


 Q  E. S E E E E   Q  Q  Q  E E   Q  E. S E E E E
-------------------------|-----------------------|-------------------------|
-------------------0--0--|--------------------0--|-------------------------|
--3----3---3-3--3--------|-----------------------|--3----3---3-3--3--2--2--|
-------------------------|--3----3----1----1-----|-------------------------|


 Q  E. S Q  E E   Q  E. S E E E E   Q  Q  Q  E E
------------------------|-------------------------|-----------------------|
------------------------|-------------------0--0--|--------------------0--|
--0----0---0-0----0-----|--3----3---3-3--3--------|-----------------------|
---------------------3--|-------------------------|--3----3----1----1-----|


 W          H    Q  Q    H    Q  Q
-------------------|---------------------|---------------------|
-------------------|---------------------|---------------------|
--3----------------|--2--------2----2----|---------------------|
-------------------|---------------------|--3--------3----3----|


 H    Q  Q    H    Q  Q    H    Q  E E
---------------------|---------------------|----------------------|
---------------------|---------------------|----------------------|
--2--------2----2----|---------------------|--0--------0----0-----|
---------------------|--3--------3----3----|-------------------3--|


 H    Q  Q    H    Q  E E   Q  Q  Q  Q
---------------------|----------------------|----------------------|
----------------0----|----------------------|--0----0----0----0----|
--3--------3---------|----------------0-----|----------------------|
---------------------|--3--------3-------3--|----------------------|


 Q  E. S E E E E   Q  E. S E E E E   Q  Q  Q  E E
-------------------------|-------------------------|-----------------------|
-------------------------|-------------------0--0--|--------------------0--|
--0----0---0-0--0--0-----|--3----3---3-3--3--------|-----------------------|
----------------------3--|-------------------------|--3----3----1----1-----|


 Q  E. S E E E E   Q  E. S Q  E E   Q  E. S E E E E
-------------------------|------------------------|-------------------------|
-------------------------|------------------------|-------------------0--0--|
--3----3---3-3--3--2--2--|--0----0---0-0----0-----|--3----3---3-3--3--------|
-------------------------|---------------------3--|-------------------------|


 Q  E. S E E E E   H    E E E E   W
-------------------------|-----------------------|-------------------||
----------------------0--|-----------------0-----|-------------------||
-------------------------|--3--------L--3-----2--|-------------------||
--3----3---3-1--1--1-----|-----------------------|--3----------------||



Duration 🏷Legend
---------------
W - whole
H - half
Q - quarter
E - 8th
S - 16th
T - 32nd
X - 64th
. - note dotted
|-n-| - n-tuplets


Tablature 🏷Legend
----------------
L - tied note
x - dead note
g - grace note
(n) - ghost note
> - accentuded note
NH - natural harmonic
AH - artificial harmonic
TH - tapped harmonic
SH - semi harmonic
PH - pitch harmonic
h - hammer on
p - pull off
b - bend
br - bendRelease
pb - preBend
pbr - preBendRelease
brb - bendReleaseBend
\n/ - tremolo bar dip
\n - tremolo bar dive
-/n - tremolo bar Release up
/n\ - tremolo bar inverted dip
/n - tremolo bar return
-\n - tremolo bar Release down
S - shift slide
s - legato slide
/ - slide into from below or out of upwards
\ - slide into from above or out of downwards
~ - vibrato
W - wide vibrato
tr - trill
TP - tremolo picking
T - tapping
S - slap
P - pop
< - fade in
^ - brush up
v - brush down

Almost there ...

Sign in to get your own page with links to favourite songs and more. You are just one click away...

Login with Facebook Login with Google