Log in

One click and you are in

Login with Facebook Login with Google

Why sign up and log in

Guitar Tabs Explorer
The Rolling Stones bass tabs for Under my thumb

Under My Thumb bass tab - The Rolling Stones

The Rolling Stones bass tabs for Under my thumb

Bass tabs with lyrics

Band: Rolling Stones
Album: Aftermath
Bassist: Bill Wyman
Tabbed By: Louie Wyman (No Joke) (Bass_ace@hotmail.com)
--Standard Tuning-- (EADG)

I haven't found a really good version of this song yet, so I took a try at it.
I'm not so sure about some of the parts of the chorus, but I think they're pretty close.

Verses and Instrumental
|-----------------------------------------------------|
|-o-------------------------------------------------o-|
|-o--9-7---9-9-7-5---7-7-7p5-3---5-3---5-5---5-5h7--o-|
|--------9---------7-----------5-----5-----5----------|
Chorus
|----2-----------2------------------------------|
|------5p4-0h2-----5p4-0h2-0-0-0-0-0------------|
|--0-----------0---------------------2-2-2-2-2--|
|-----------------------------------------------|

|--------------------------|------2------------2------------|
|-o------------------------|-o-------5p4-0h2-----5p4-0h2--o-|
|-o--9-7---9-9-7-7-7-5-5-5-|-o--0------------0------------o-|
|--------9---------0-------|--------------------------------|

The song opens with the verse riff, and plays it twice through the actual verses,
the rythm changes when Mick is singing, but if you listen, you can get the jist
of it. Just listen to the song to get the order, it pretty much just switches back
and forth about 5 times, so it's pretty simple.

Almost there ...

Sign in to get your own page with links to favourite songs and more. You are just one click away...

Login with Facebook Login with Google