Log in

One click and you are in

Login with Facebook Login with Google

Why sign up and log in

Guitar Tabs Explorer
The Rolling Stones bass tabs for Rough justice

Rough Justice bass tab by The Rolling Stones

The Rolling Stones bass tabs for Rough justice

Bass tabs

Album: A Bigger Bang (2005)

Tuning: Standard E,A,D,G


Intro:
G-----------5h7-5---------------------|
D-------------------7-----------------|
A--1/5------------------5~------------|
E-------------------------------------|

G-------------------------------------|
D-------------------------------------|
A--5555553h555553h555553h555553h55555-|
E-------------------------------------|
Verse:
G--------------------------------------|
D--------------------------------------|
A--3h55555-X8--------------------------|
E----------------------/10-------------|


Chorus:
G-------------------------------------|
D-------------------------------------|
A---------3h5~5p3h5-------------------|
E-3-3-3-------------------------------|


Verse 2:

G--------------------------------------|
D--------------------------------------|
A--3h55555-X8--------------------------|
E----------------------/10-------------|


Chorus:
G-------------------------------------|
D-------------------------------------|
A---------3h5~5p3h5-------------------| X15
E-3-3-3-------------------------------|


Verse 3:

G--------------------------------------|
D--------------------------------------|
A--3h55555-X8--------------------------|
E----------------------/10-------------|


Chorus:

G-------------------------------------|
D-------------------------------------|
A---------3h5~5p3h5-------------------| take it to the end

ⓘ Bass guitar tab for 'Rough Justice' by The Rolling Stones, a rock band formed in 1962 from London, England. The Rolling Stones is known for their energetic rock/pop music.

Almost there ...

Sign in to get your own page with links to favourite songs and more. You are just one click away...

Login with Facebook Login with Google