Log in

One click and you are in

Login with Facebook Login with Google

Why sign up and log in

Guitar Tabs Explorer
The Rolling Stones tabs for Rip this joint

Guitar tabs with lyrics

Open A chord diagramG+G capo 2 (Capo 2)


     A chord diagramC5C5    A chord diagramF/CF/C
     A chord diagramE MajorE  A chord diagramE MajorE  A chord diagramE MajorE   A chord diagramE MajorE  A chord diagramE MajorE  A chord diagramE MajorE  A chord diagramE MajorE  A chord diagramE MajorE     A chord diagramE MajorE  A chord diagramE MajorE  A chord diagramE MajorE  A chord diagramE MajorE  A chord diagramE MajorE  A chord diagramE MajorE  A chord diagramE MajorE  A chord diagramE MajorE
A chord diagramD MajorD||---------------------------|--------------------------|
A chord diagramBB||--------6------------6-----|--------6-----------6-----|
A chord diagramG+G||--------5------------5-----|--------5-----------5-----|
A chord diagramD MajorD||--5--5--7---5--5--5--7--5--|--5--5--7--5--5--5--7--5--|
A chord diagramG+G||--5--5--5---5--5--5--5--5--|--5--5--5--5--5--5--5--5--|
A chord diagramD MajorD||---------------------------|--------------------------|
                                   A chord diagramC/GC/G
  A chord diagramE MajorE  A chord diagramE MajorE  A chord diagramE MajorE  A chord diagramE MajorE  A chord diagramE MajorE  A chord diagramE MajorE  A chord diagramE MajorE  A chord diagramE MajorE     A chord diagramE MajorE  A chord diagramE MajorE  A chord diagramE MajorE   A chord diagramE MajorE  A chord diagramE MajorE  A chord diagramE MajorE  A chord diagramE MajorE  A chord diagramE MajorE
--------------------------|---------------------------|
--------6-----------6-----|--------1------------1-----|
--------5-----------5-----|--------0------------0-----|
--5--5--7--5--5--5--7--5--|--L--5--2---0--0--0--2--5--|
--5--5--5--5--5--5--5--5--|--L--5--0---0--0--0--0--5--|
--------------------------|---------------------------|


  A chord diagramE MajorE  A chord diagramE MajorE  A chord diagramE MajorE  A chord diagramE MajorE  A chord diagramE MajorE  A chord diagramE MajorE  A chord diagramE MajorE  A chord diagramE MajorE     A chord diagramE MajorE  A chord diagramE MajorE  A chord diagramE MajorE  A chord diagramE MajorE  A chord diagramE MajorE  A chord diagramE MajorE  A chord diagramE MajorE  A chord diagramE MajorE
--------------------------|--------------------------|
--------6--5--5--5--6--5--|--------6--5--5--5--6--5--|
--------5--5--5--5--5--5--|--------5--5--5--5--5--5--|
--L--5--7--5--5--5--7--5--|--L--5--7--5--5--5--7--5--|
--L--5--5--5--5--5--5--5--|--L--5--5--5--5--5--5--5--|
--------------------------|--------------------------|


                             A chord diagramG5G5    A chord diagramC/GC/G
  A chord diagramE MajorE  A chord diagramE MajorE  A chord diagramE MajorE  A chord diagramE MajorE  A chord diagramE MajorE  A chord diagramE MajorE  A chord diagramE MajorE  A chord diagramE MajorE     A chord diagramE MajorE  A chord diagramE MajorE  A chord diagramE MajorE   A chord diagramE MajorE  A chord diagramE MajorE  A chord diagramE MajorE  A chord diagramE MajorE  A chord diagramE MajorE
--------------------------|---------------------------|
--------6--5--5--5--6-----|--------1------1-----1-----|
--------5--5--5--5--5-----|--------0------0-----0-----|
--L--5--7--5--5--5--7--0--|--0--0--2---0--2--0--2--x--|
--L--5--5--5--5--5--5--0--|--0--0--0---0--0--0--0--x--|
--------------------------|---------------------------|

  A chord diagramC5C5    A chord diagramF/CF/C
  A chord diagramE MajorE  A chord diagramE MajorE  Q    A chord diagramE MajorE  A chord diagramE MajorE  A chord diagramE MajorE  A chord diagramE MajorE     A chord diagramE MajorE  A chord diagramE MajorE  A chord diagramE MajorE  A chord diagramE MajorE  A chord diagramE MajorE  A chord diagramE MajorE  A chord diagramE MajorE  A chord diagramE MajorE
-------------------------|--------------------------|
--------6----5--5--6--6--|--6--6--6--------5--6--x--|
--------5----5--5--5--5--|--5--5--5--------5--5--x--|
--5--5--7----5--5--7--7--|--7--7--7--5--5--5--7--x--|
--5--5--5----5--5--5--5--|--5--5--5--5--5--5--5--x--|
-------------------------|--------------------------|


  A chord diagramG5G5    A chord diagramC/DC/D                         A chord diagramF/CF/C             A chord diagramC5C5
  A chord diagramE MajorE  A chord diagramE MajorE  A chord diagramE MajorE   A chord diagramE MajorE  A chord diagramE MajorE  A chord diagramE MajorE  A chord diagramE MajorE  A chord diagramE MajorE     A chord diagramE MajorE  A chord diagramE MajorE  A chord diagramE MajorE   A chord diagramE MajorE  A chord diagramE MajorE  A chord diagramE MajorE  A chord diagramE MajorE  A chord diagramE MajorE
---------------------------|---------------------------|
--------1------------1-----|--------6---6--L--6--6-----|
--------0------------0-----|--------5---5--L--5--5-----|
--0--0--2---0--0--0--2--0--|--0--0--7---7--L--7--7--5--|
--0--0--0---0--0--0--0--0--|--0--0--5---5--L--5--5--5--|
--------0------------------|---------------------------|


                                                       A chord diagramG5G5
  A chord diagramE MajorE  A chord diagramE MajorE  A chord diagramE MajorE  A chord diagramE MajorE  A chord diagramE MajorE  A chord diagramE MajorE  A chord diagramE MajorE  A chord diagramE MajorE     A chord diagramE MajorE  A chord diagramE MajorE  A chord diagramE MajorE  A chord diagramE MajorE  A chord diagramE MajorE  A chord diagramE MajorE  Q       A chord diagramE MajorE  A chord diagramE MajorE  A chord diagramE MajorE  A chord diagramE MajorE  A chord diagramE MajorE  A chord diagramE MajorE  A chord diagramE MajorE  A chord diagramE MajorE
--------------------------|-------------------------|--------------------------|
--------6-----------6-----|--------6--5--L--5--6----|--------------------------|
--------5-----------5-----|--------5--5--L--5--5----|--------------------------|
--5--5--7--5--5--5--7--5--|--5--5--7--5--L--5--7----|--0--0--2--0--0--0--0--0--|
--5--5--5--5--5--5--5--5--|--5--5--5--5--L--5--5----|--0--0--0--0--0--0--0--0--|
--------------------------|-------------------------|--------------------------|


                             A chord diagramC majorC           A chord diagramF/CF/C       A chord diagramC majorC
  A chord diagramE MajorE  A chord diagramE MajorE  A chord diagramE MajorE  A chord diagramE MajorE  A chord diagramE MajorE  A chord diagramE MajorE  A chord diagramE MajorE  A chord diagramE MajorE     A chord diagramE MajorE  A chord diagramE MajorE  A chord diagramE MajorE  A chord diagramE MajorE  A chord diagramE MajorE   A chord diagramE MajorE  A chord diagramE MajorE  A chord diagramE MajorE
--------------------------|---------------------------|
--------------------------|--5--5--5--x--6---6--6--5--|
--------------------------|--5--5--5--x--5---5--5--5--|
--0--0--0--0--0--0--0--0--|--5--5--5--x--7---7--7--5--|
--0--0--0--0--0--0--0--0--|--5--5--5--x--5---5--5--5--|
--------------------------|---------------------------|


     A chord diagramF/CF/C
  A chord diagramE MajorE  A chord diagramE MajorE   A chord diagramE MajorE  A chord diagramE MajorE  A chord diagramE MajorE  A chord diagramE MajorE  A chord diagramE MajorE  A chord diagramE MajorE     A chord diagramE MajorE  A chord diagramE MajorE  A chord diagramE MajorE  A chord diagramE MajorE  A chord diagramE MajorE  A chord diagramE MajorE  A chord diagramE MajorE  A chord diagramE MajorE
---------------------------|--------------------------|
--5--6---5--5--5--6--5--5--|--------6-----------6--5--|
--5--5---5--5--5--5--5--5--|--------5-----------5--5--|
--5--7---5--5--5--7--5--5--|--5--5--7--5--5--5--7--5--|
--5--5---5--5--5--5--5--5--|--5--5--5--5--5--5--5--5--|
---------------------------|--------------------------|


  A chord diagramE MajorE  A chord diagramE MajorE  A chord diagramE MajorE  A chord diagramE MajorE  A chord diagramE MajorE  A chord diagramE MajorE  A chord diagramE MajorE  A chord diagramE MajorE     A chord diagramE MajorE  A chord diagramE MajorE  A chord diagramE MajorE  A chord diagramE MajorE  A chord diagramE MajorE  A chord diagramE MajorE  A chord diagramE MajorE  A chord diagramE MajorE
--------------------------|--------------------------|
--5--5--6--5--5--5--6--5--|--5--5--6--5--5--5--6--5--|
--5--5--5--5--5--5--5--5--|--5--5--5--5--5--5--5--5--|
--5--5--7--5--5--5--7--5--|--5--5--7--5--5--5--7--5--|
--5--5--5--5--5--5--5--5--|--5--5--5--5--5--5--5--5--|
--------------------------|--------------------------|


  A chord diagramE MajorE  A chord diagramE MajorE  A chord diagramE MajorE  A chord diagramE MajorE  A chord diagramE MajorE  A chord diagramE MajorE  A chord diagramE MajorE  A chord diagramE MajorE       A chord diagramE MajorE  A chord diagramE MajorE  A chord diagramE MajorE  A chord diagramE MajorE  A chord diagramE MajorE  A chord diagramE MajorE  A chord diagramE MajorE  A chord diagramE MajorE
--------------------------||---------------------------|
--5--5--6--5--5--5--6--5--||---5--5--6-----------6-----|
--5--5--5--5--5--5--5--5--||*--5--5--5-----------5-----|
--5--5--7--5--5--5--7--5--||*--5--5--7--5--5--5--7--0--|
--5--5--5--5--5--5--5--5--||---5--5--5--5--5--5--5--0--|
--------------------------||---------------------------|


  A chord diagramE MajorE  A chord diagramE MajorE  A chord diagramE MajorE  A chord diagramE MajorE  A chord diagramE MajorE  A chord diagramE MajorE  A chord diagramE MajorE  A chord diagramE MajorE     A chord diagramE MajorE  A chord diagramE MajorE  A chord diagramE MajorE  A chord diagramE MajorE  A chord diagramE MajorE  A chord diagramE MajorE  A chord diagramE MajorE  A chord diagramE MajorE
--------------------------|--------------------------|
--------1-----------1-----|--------6--5--5--5--6--5--|
--------0-----------0-----|--------5--5--5--5--5--5--|
--0--0--2--0--0--0--2--5--|--5--5--7--5--5--5--7--5--|
--0--0--0--0--0--0--0--5--|--5--5--5--5--5--5--5--5--|
--------------------------|--------------------------|


  A chord diagramE MajorE  A chord diagramE MajorE  A chord diagramE MajorE  A chord diagramE MajorE  A chord diagramE MajorE  A chord diagramE MajorE  A chord diagramE MajorE  A chord diagramE MajorE     A chord diagramE MajorE  A chord diagramE MajorE  A chord diagramE MajorE  A chord diagramE MajorE  A chord diagramE MajorE  A chord diagramE MajorE  A chord diagramE MajorE  A chord diagramE MajorE
--------------------------|--------------------------|
--------6--5--5--5--6--5--|--5--5--6--5--5--5--6-----|
--------5--5--5--5--5--5--|--5--5--5--5--5--5--5-----|
--5--5--7--5--5--5--7--5--|--5--5--7--5--5--5--7--0--|
--5--5--5--5--5--5--5--5--|--5--5--5--5--5--5--5--0--|
--------------------------|--------------------------|


  A chord diagramE MajorE  A chord diagramE MajorE  A chord diagramE MajorE  A chord diagramE MajorE  A chord diagramE MajorE  A chord diagramE MajorE  A chord diagramE MajorE  A chord diagramE MajorE     A chord diagramE MajorE  A chord diagramE MajorE  Q    A chord diagramE MajorE  A chord diagramE MajorE  A chord diagramE MajorE  A chord diagramE MajorE     A chord diagramE MajorE  A chord diagramE MajorE  A chord diagramE MajorE  A chord diagramE MajorE  A chord diagramE MajorE  A chord diagramE MajorE  A chord diagramE MajorE  A chord diagramE MajorE
--------------------------|-------------------------|--------------------------|
--------1-----1-----1--x--|--------6----5--5--6--5--|--5--5--5--------5--6--x--|
--------0-----0-----0--x--|--------5----5--5--5--5--|--5--5--5--------5--5--x--|
--0--0--2--0--2--0--2--x--|--5--5--7----5--5--7--5--|--5--5--5--5--5--5--7--x--|
--0--0--0--0--0--0--0--x--|--5--5--5----5--5--5--5--|--5--5--5--5--5--5--5--x--|
--------------------------|-------------------------|--------------------------|


  A chord diagramE MajorE  A chord diagramE MajorE  A chord diagramE MajorE  A chord diagramE MajorE  A chord diagramE MajorE  A chord diagramE MajorE  A chord diagramE MajorE  A chord diagramE MajorE     A chord diagramE MajorE  A chord diagramE MajorE  A chord diagramE MajorE  A chord diagramE MajorE  A chord diagramE MajorE  A chord diagramE MajorE  A chord diagramE MajorE  A chord diagramE MajorE
--------------------------|--------------------------|
--------1-----------1-----|--------6--6--L--6--6-----|
--------0-----------0-----|--------5--5--L--5--5-----|
--0--0--2--0--0--0--2--0--|--0--0--7--7--L--7--7--5--|
--0--0--0--0--0--0--0--0--|--0--0--5--5--L--5--5--5--|
--------------------------|--------------------------|


  A chord diagramE MajorE  A chord diagramE MajorE  A chord diagramE MajorE  A chord diagramE MajorE  A chord diagramE MajorE  A chord diagramE MajorE  A chord diagramE MajorE  A chord diagramE MajorE     A chord diagramE MajorE  A chord diagramE MajorE  A chord diagramE MajorE  A chord diagramE MajorE  A chord diagramE MajorE  A chord diagramE MajorE  Q       A chord diagramE MajorE  A chord diagramE MajorE  A chord diagramE MajorE  A chord diagramE MajorE  A chord diagramE MajorE  A chord diagramE MajorE  A chord diagramE MajorE  A chord diagramE MajorE
--------------------------|-------------------------|--------------------------|
--------6-----------6-----|--------6--5--L--5--6----|--------------------------|
--------5-----------5-----|--------5--5--L--5--5----|--------------------------|
--5--5--7--5--5--5--7--5--|--5--5--7--5--L--5--7----|--0--0--2--0--0--0--0--0--|
--5--5--5--5--5--5--5--5--|--5--5--5--5--L--5--5----|--0--0--2--0--0--0--0--0--|
--------------------------|-------------------------|--------------------------|


  A chord diagramE MajorE  A chord diagramE MajorE  A chord diagramE MajorE  A chord diagramE MajorE  A chord diagramE MajorE  A chord diagramE MajorE  A chord diagramE MajorE  A chord diagramE MajorE     A chord diagramE MajorE  A chord diagramE MajorE  A chord diagramE MajorE  A chord diagramE MajorE  A chord diagramE MajorE  A chord diagramE MajorE  A chord diagramE MajorE  A chord diagramE MajorE
--------------------------|--------------------------|
--------------------------|--5--5--5--x--6--6--6--5--|
--------------------------|--5--5--5--x--5--5--5--5--|
--0--0--0--0--0--0--0--0--|--5--5--5--x--7--7--7--5--|
--0--0--0--0--0--0--0--0--|--5--5--5--x--5--5--5--5--|
--------------------------|--------------------------|


  A chord diagramE MajorE  A chord diagramE MajorE  A chord diagramE MajorE  A chord diagramE MajorE  A chord diagramE MajorE  A chord diagramE MajorE  A chord diagramE MajorE  A chord diagramE MajorE     Q    Q    Q    Q       A chord diagramE MajorE  A chord diagramE MajorE  A chord diagramE MajorE  A chord diagramE MajorE  A chord diagramE MajorE  A chord diagramE MajorE  Q
--------------------------|----------------------|-------------------------|
--5--6--5--5--5--6--5--5--|--5---------5---------|--6--6-----5-----5--5----|
--5--5--5--5--5--5--5--5--|--5---------5---------|--5--5-----5-----5--5----|
--5--7--5--5--5--7--5--5--|--5---------5---------|--7--7-----5-----5--5----|
--5--5--5--5--5--5--5--5--|--5---------5---------|--5--5-----5-----5--5----|
--------------------------|----------------------|-------------------------|


  Q    Q    H           A chord diagramE MajorE  A chord diagramE MajorE  A chord diagramE MajorE  A chord diagramE MajorE  A chord diagramE MajorE  A chord diagramE MajorE  Q       Q    Q    Q    A chord diagramE MajorE  A chord diagramE MajorE
---------------------|-------------------------|-----------------------|
---------------------|-------------------------|--5---------5-------5--|
---------------------|-------------------------|--5---------5-------5--|
--0----0----0--------|--0--0-----0--L--0--0----|--5---------5-------5--|
--0----0----0--------|--0--0-----0--L--0--0----|--5---------5-------5--|
---------------------|-------------------------|-----------------------|


  A chord diagramE MajorE  Q    A chord diagramE MajorE  A chord diagramE MajorE  A chord diagramE MajorE  Q       H        Q.     A chord diagramE MajorE     A chord diagramE MajorE  Q    A chord diagramE MajorE  Q    Q
------------------------|---------------------|-----------------------|
--6--6----5-----6--5----|---------------------|-----------------------|
--5--5----5-----5--5----|---------------------|-----------------------|
--7--7----5-----7--5----|--0--------0------0--|--0--0----0--0----0----|
--5--5----5-----5--5----|--0--------0------0--|--0--0----0--0----0----|
------------------------|---------------------|-----------------------|


  A chord diagramE MajorE  A chord diagramE MajorE  A chord diagramE MajorE  A chord diagramE MajorE  A chord diagramE MajorE  A chord diagramE MajorE  A chord diagramE MajorE  A chord diagramE MajorE     A chord diagramE MajorE  A chord diagramE MajorE  A chord diagramE MajorE  A chord diagramE MajorE  A chord diagramE MajorE  A chord diagramE MajorE  A chord diagramE MajorE  A chord diagramE MajorE
--------------------------|--------------------------|
--------6-----------6-----|--------1-----------1-----|
--------5-----------5-----|--------0-----------0-----|
--0--0--7--5--5--5--7--0--|--0--0--2--0--0--0--2--5--|
--0--0--5--5--5--5--5--0--|--0--0--0--0--0--0--0--5--|
--------------------------|--------------------------|


  A chord diagramE MajorE  A chord diagramE MajorE  A chord diagramE MajorE  A chord diagramE MajorE  A chord diagramE MajorE  A chord diagramE MajorE  A chord diagramE MajorE  A chord diagramE MajorE     A chord diagramE MajorE  A chord diagramE MajorE  A chord diagramE MajorE  A chord diagramE MajorE  A chord diagramE MajorE  A chord diagramE MajorE  A chord diagramE MajorE  A chord diagramE MajorE
--------------------------|--------------------------|
--------6--5--5--5--6--5--|--------6--5--5--5--6--5--|
--------5--5--5--5--5--5--|--------5--5--5--5--5--5--|
--5--5--7--5--5--5--7--5--|--5--5--7--5--5--5--7--5--|
--5--5--5--5--5--5--5--5--|--5--5--5--5--5--5--5--5--|
--------------------------|--------------------------|


  A chord diagramE MajorE  A chord diagramE MajorE  A chord diagramE MajorE  A chord diagramE MajorE  A chord diagramE MajorE  A chord diagramE MajorE  A chord diagramE MajorE  A chord diagramE MajorE     A chord diagramE MajorE  A chord diagramE MajorE  A chord diagramE MajorE  A chord diagramE MajorE  A chord diagramE MajorE  A chord diagramE MajorE  A chord diagramE MajorE  A chord diagramE MajorE     A chord diagramE MajorE  A chord diagramE MajorE  Q    A chord diagramE MajorE  A chord diagramE MajorE  A chord diagramE MajorE  A chord diagramE MajorE
--------------------------|--------------------------|-------------------------|
--5--5--6--5--5--5--6-----|--------1-----1-----1-----|--------6----5--5--6--6--|
--5--5--5--5--5--5--5-----|--------0-----0-----0--x--|--------5----5--5--5--5--|
--5--5--7--5--5--5--7--5--|--5--5--2--0--2--0--2--x--|--5--5--7----5--5--7--7--|
--5--5--5--5--5--5--5--5--|--5--5--0--0--0--0--0--x--|--5--5--5----5--5--5--5--|
--------------------------|--------------------------|-------------------------|


  A chord diagramE MajorE  A chord diagramE MajorE  A chord diagramE MajorE  A chord diagramE MajorE  A chord diagramE MajorE  A chord diagramE MajorE  A chord diagramE MajorE  A chord diagramE MajorE     A chord diagramE MajorE  A chord diagramE MajorE  A chord diagramE MajorE  A chord diagramE MajorE  A chord diagramE MajorE  A chord diagramE MajorE  A chord diagramE MajorE  A chord diagramE MajorE
--------------------------|--------------------------|
--6--6--6--------5--6--x--|--------1-----------1-----|
--5--5--5--------5--5--x--|--------0-----------0-----|
--7--7--7--5--5--5--7--x--|--0--0--2--0--0--0--2--0--|
--5--5--5--5--5--5--5--x--|--0--0--0--0--0--0--0--0--|
--------------------------|--------------------------|


  A chord diagramE MajorE  A chord diagramE MajorE  A chord diagramE MajorE  A chord diagramE MajorE  A chord diagramE MajorE  A chord diagramE MajorE  A chord diagramE MajorE  A chord diagramE MajorE     A chord diagramE MajorE  A chord diagramE MajorE  A chord diagramE MajorE  A chord diagramE MajorE  A chord diagramE MajorE  A chord diagramE MajorE  A chord diagramE MajorE  A chord diagramE MajorE     A chord diagramE MajorE  A chord diagramE MajorE  A chord diagramE MajorE  A chord diagramE MajorE  A chord diagramE MajorE  A chord diagramE MajorE  Q
--------------------------|--------------------------|-------------------------|
--------6--6--L--6--6-----|--------6-----------6-----|--------6--5--L--5--6----|
--------5--5--L--5--5-----|--------5-----------5-----|--------5--5--L--5--5----|
--0--0--7--7--L--7--7--5--|--5--5--7--5--5--5--7--5--|--5--5--7--5--L--5--7----|
--0--0--5--5--L--5--5--5--|--5--5--5--5--5--5--5--5--|--5--5--5--5--L--5--5----|
--------------------------|--------------------------|-------------------------|


  A chord diagramE MajorE  A chord diagramE MajorE  A chord diagramE MajorE  A chord diagramE MajorE  A chord diagramE MajorE  A chord diagramE MajorE  A chord diagramE MajorE  A chord diagramE MajorE     A chord diagramE MajorE  A chord diagramE MajorE  A chord diagramE MajorE  A chord diagramE MajorE  A chord diagramE MajorE  A chord diagramE MajorE  A chord diagramE MajorE  A chord diagramE MajorE
--------------------------|--------------------------|
--------------------------|--------------------------|
--------------------------|--------------------------|
--0--0--2--0--0--0--0--0--|--0--0--0--0--0--0--0--0--|
--0--0--0--0--0--0--0--0--|--0--0--0--0--0--0--0--0--|
--------------------------|--------------------------|


  A chord diagramE MajorE  A chord diagramE MajorE  A chord diagramE MajorE  A chord diagramE MajorE  A chord diagramE MajorE  A chord diagramE MajorE  A chord diagramE MajorE  A chord diagramE MajorE     A chord diagramE MajorE  A chord diagramE MajorE  A chord diagramE MajorE  A chord diagramE MajorE  A chord diagramE MajorE  A chord diagramE MajorE  A chord diagramE MajorE  A chord diagramE MajorE
--------------------------|--------------------------|
--5--5--5--x--6--6--6--5--|--5--6--5--5--5--6--5--5--|
--5--5--5--x--5--5--5--5--|--5--5--5--5--5--5--5--5--|
--5--5--5--x--7--7--7--5--|--5--7--5--5--5--7--5--5--|
--5--5--5--x--5--5--5--5--|--5--5--5--5--5--5--5--5--|
--------------------------|--------------------------|


  A chord diagramE MajorE  A chord diagramE MajorE  A chord diagramE MajorE  A chord diagramE MajorE  A chord diagramE MajorE  A chord diagramE MajorE  A chord diagramE MajorE  A chord diagramE MajorE     A chord diagramE MajorE  A chord diagramE MajorE  A chord diagramE MajorE  A chord diagramE MajorE  A chord diagramE MajorE  A chord diagramE MajorE  A chord diagramE MajorE  A chord diagramE MajorE
--------------------------|--------------------------|
--------6-----------6--5--|--5--5--6--5--5--5--6--5--|
--------5-----------5--5--|--5--5--5--5--5--5--5--5--|
--5--5--7--5--5--5--7--5--|--5--5--7--5--5--5--7--5--|
--5--5--5--5--5--5--5--5--|--5--5--5--5--5--5--5--5--|
--------------------------|--------------------------|


  A chord diagramE MajorE  A chord diagramE MajorE  A chord diagramE MajorE  A chord diagramE MajorE  A chord diagramE MajorE  A chord diagramE MajorE  A chord diagramE MajorE  A chord diagramE MajorE     A chord diagramE MajorE  A chord diagramE MajorE  A chord diagramE MajorE  A chord diagramE MajorE  A chord diagramE MajorE  A chord diagramE MajorE  A chord diagramE MajorE  A chord diagramE MajorE
--------------------------|---------------------------||
--5--5--6--5--5--5--6--5--|--5--5--6--5--5--5--6--5---||
--5--5--5--5--5--5--5--5--|--5--5--5--5--5--5--5--5--*||
--5--5--7--5--5--5--7--5--|--5--5--7--5--5--5--7--5--*||
--5--5--5--5--5--5--5--5--|--5--5--5--5--5--5--5--5---||
--------------------------|---------------------------||


  A chord diagramE MajorE  A chord diagramE MajorE  A chord diagramE MajorE  A chord diagramE MajorE  A chord diagramE MajorE  A chord diagramE MajorE  A chord diagramE MajorE  A chord diagramE MajorE     Q    Q    Q    Q       A chord diagramE MajorE  A chord diagramE MajorE  A chord diagramE MajorE  A chord diagramE MajorE  A chord diagramE MajorE  A chord diagramE MajorE  Q
--------------------------|----------------------|-------------------------|
--5--6--5--5--5--6--5--5--|--5---------5---------|--6--6-----5-----5--5----|
--5--5--5--5--5--5--5--5--|--5---------5---------|--5--5-----5-----5--5----|
--5--7--5--5--5--7--5--5--|--5---------5---------|--7--7-----5-----5--5----|
--5--5--5--5--5--5--5--5--|--5---------5---------|--5--5-----5-----5--5----|
--------------------------|----------------------|-------------------------|


  Q    Q    H           A chord diagramE MajorE  A chord diagramE MajorE  A chord diagramE MajorE  A chord diagramE MajorE  A chord diagramE MajorE  A chord diagramE MajorE  Q       Q    Q    Q    A chord diagramE MajorE  A chord diagramE MajorE
---------------------|-------------------------|-----------------------|
--5----5----5--------|--5--5-----5--L--5--5----|--5---------5-------5--|
--5----5----5--------|--5--5-----5--L--5--5----|--5---------5-------5--|
--5----5----5--------|--5--5-----5--L--5--5----|--5---------5-------5--|
--5----5----5--------|--5--5-----5--L--5--5----|--5---------5-------5--|
---------------------|-------------------------|-----------------------|


  A chord diagramE MajorE  Q    A chord diagramE MajorE  A chord diagramE MajorE  A chord diagramE MajorE  Q       H        Q.     A chord diagramE MajorE     A chord diagramE MajorE  Q    A chord diagramE MajorE  Q    Q
------------------------|---------------------|-----------------------|
--6--6----5-----6--5----|---------------------|-----------------------|
--5--5----5-----5--5----|---------------------|-----------------------|
--7--7----5-----7--5----|--0--------0------0--|--0--0----0--0----0----|
--5--5----5-----5--5----|--0--------0------0--|--0--0----0--0----0----|
------------------------|---------------------|-----------------------|


  A chord diagramE MajorE  A chord diagramE MajorE  A chord diagramE MajorE  A chord diagramE MajorE  A chord diagramE MajorE  A chord diagramE MajorE  A chord diagramE MajorE  A chord diagramE MajorE     A chord diagramE MajorE  A chord diagramE MajorE  A chord diagramE MajorE  A chord diagramE MajorE  A chord diagramE MajorE  A chord diagramE MajorE  A chord diagramE MajorE  A chord diagramE MajorE
--------------------------|--------------------------|
--------------------------|--------1-----------1-----|
--2--2--4--2--2--2--4-----|--------0-----------0-----|
--0--0--0--0--0--0--0--0--|--0--0--2--0--0--0--2--5--|
-----------------------0--|--0--0--0--0--0--0--0--5--|
--------------------------|--------------------------|


  A chord diagramE MajorE  A chord diagramE MajorE  A chord diagramE MajorE  A chord diagramE MajorE  A chord diagramE MajorE  A chord diagramE MajorE  A chord diagramE MajorE  A chord diagramE MajorE     A chord diagramE MajorE  A chord diagramE MajorE  A chord diagramE MajorE  A chord diagramE MajorE  A chord diagramE MajorE  A chord diagramE MajorE  A chord diagramE MajorE  A chord diagramE MajorE
--------------------------|--------------------------|
--------6--5--5--5--6--5--|--------6--5--5--5--6--5--|
--------5--5--5--5--5--5--|--------5--5--5--5--5--5--|
--5--5--7--5--5--5--7--5--|--5--5--7--5--5--5--7--5--|
--5--5--5--5--5--5--5--5--|--5--5--5--5--5--5--5--5--|
--------------------------|--------------------------|


  A chord diagramE MajorE  A chord diagramE MajorE  A chord diagramE MajorE  A chord diagramE MajorE  A chord diagramE MajorE  A chord diagramE MajorE  A chord diagramE MajorE  A chord diagramE MajorE     A chord diagramE MajorE  A chord diagramE MajorE  A chord diagramE MajorE  A chord diagramE MajorE  A chord diagramE MajorE  A chord diagramE MajorE  A chord diagramE MajorE  A chord diagramE MajorE     A chord diagramE MajorE  A chord diagramE MajorE  Q    A chord diagramE MajorE  A chord diagramE MajorE  A chord diagramE MajorE  A chord diagramE MajorE
--------------------------|--------------------------|-------------------------|
--5--5--6--5--5--5--6-----|--------1-----1-----1--x--|--------6----5--5--6--5--|
--5--5--5--5--5--5--5-----|--------0-----0-----0--x--|--------5----5--5--5--5--|
--5--5--7--5--5--5--7--0--|--0--0--2--0--2--0--2--x--|--5--5--7----5--5--7--5--|
--5--5--5--5--5--5--5--0--|--0--0--0--0--0--0--0--x--|--5--5--5----5--5--5--5--|
--------------------------|--------------------------|-------------------------|


  A chord diagramE MajorE  A chord diagramE MajorE  A chord diagramE MajorE  A chord diagramE MajorE  A chord diagramE MajorE  A chord diagramE MajorE  A chord diagramE MajorE  A chord diagramE MajorE     A chord diagramE MajorE  A chord diagramE MajorE  A chord diagramE MajorE  A chord diagramE MajorE  A chord diagramE MajorE  A chord diagramE MajorE  A chord diagramE MajorE  A chord diagramE MajorE
--------------------------|--------------------------|
--5--5--5--------5--6--x--|--------1-----------1-----|
--5--5--5--------5--5--x--|--------0-----------0-----|
--5--5--5--5--5--5--7--x--|--0--0--2--0--0--0--2--0--|
--5--5--5--5--5--5--5--x--|--0--0--0--0--0--0--0--0--|
--------------------------|--------------------------|


  A chord diagramE MajorE  A chord diagramE MajorE  A chord diagramE MajorE  A chord diagramE MajorE  A chord diagramE MajorE  A chord diagramE MajorE  A chord diagramE MajorE  A chord diagramE MajorE     A chord diagramE MajorE  A chord diagramE MajorE  A chord diagramE MajorE  A chord diagramE MajorE  A chord diagramE MajorE  A chord diagramE MajorE  A chord diagramE MajorE  A chord diagramE MajorE     A chord diagramE MajorE  A chord diagramE MajorE  A chord diagramE MajorE  A chord diagramE MajorE  A chord diagramE MajorE  A chord diagramE MajorE  Q
--------------------------|--------------------------|-------------------------|
--------6--6--L--6--6-----|--------6-----------6-----|--------6--5--L--5--6----|
--------5--5--L--5--5-----|--------5-----------5-----|--------5--5--L--5--5----|
--0--0--7--7--L--7--7--5--|--5--5--7--5--5--5--7--5--|--5--5--7--5--L--5--7----|
--0--0--5--5--L--5--5--5--|--5--5--5--5--5--5--5--5--|--5--5--5--5--L--5--5----|
--------------------------|--------------------------|-------------------------|


  A chord diagramE MajorE  A chord diagramE MajorE  A chord diagramE MajorE  A chord diagramE MajorE  A chord diagramE MajorE  A chord diagramE MajorE  A chord diagramE MajorE  A chord diagramE MajorE     A chord diagramE MajorE  A chord diagramE MajorE  A chord diagramE MajorE  A chord diagramE MajorE  A chord diagramE MajorE  A chord diagramE MajorE  A chord diagramE MajorE  A chord diagramE MajorE
--------------------------|--------------------------|
--------------------------|--------------------------|
--------------------------|--------------------------|
--0--0--2--0--0--0--0--0--|--0--0--0--0--0--0--0--0--|
--0--0--0--0--0--0--0--0--|--0--0--0--0--0--0--0--0--|
--------------------------|--------------------------|


  A chord diagramE MajorE  A chord diagramE MajorE  A chord diagramE MajorE  A chord diagramE MajorE  A chord diagramE MajorE  A chord diagramE MajorE  A chord diagramE MajorE  A chord diagramE MajorE     A chord diagramE MajorE  A chord diagramE MajorE  A chord diagramE MajorE  A chord diagramE MajorE  A chord diagramE MajorE  A chord diagramE MajorE  A chord diagramE MajorE  A chord diagramE MajorE
--------------------------|--------------------------|
--5--5--5--x--6--6--6--5--|--5--6--5--5--5--6--5--5--|
--5--5--5--x--5--5--5--5--|--5--5--5--5--5--5--5--5--|
--5--5--5--x--7--7--7--5--|--5--7--5--5--5--7--5--5--|
--5--5--5--x--5--5--5--5--|--5--5--5--5--5--5--5--5--|
--------------------------|--------------------------|


  A chord diagramE MajorE  A chord diagramE MajorE  A chord diagramE MajorE  A chord diagramE MajorE  A chord diagramE MajorE  A chord diagramE MajorE  A chord diagramE MajorE  A chord diagramE MajorE     A chord diagramE MajorE  A chord diagramE MajorE  A chord diagramE MajorE  A chord diagramE MajorE  A chord diagramE MajorE  A chord diagramE MajorE  A chord diagramE MajorE  A chord diagramE MajorE
--------------------------|--------------------------|
--------6-----------6--5--|--5--5--6--5--5--5--6--5--|
--------5-----------5--5--|--5--5--5--5--5--5--5--5--|
--5--5--7--5--5--5--7--5--|--5--5--7--5--5--5--7--5--|
--5--5--5--5--5--5--5--5--|--5--5--5--5--5--5--5--5--|
--------------------------|--------------------------|


  A chord diagramE MajorE  A chord diagramE MajorE  A chord diagramE MajorE  A chord diagramE MajorE  A chord diagramE MajorE  A chord diagramE MajorE  A chord diagramE MajorE  A chord diagramE MajorE     A chord diagramE MajorE  A chord diagramE MajorE  A chord diagramE MajorE  A chord diagramE MajorE  A chord diagramE MajorE  A chord diagramE MajorE  A chord diagramE MajorE  A chord diagramE MajorE
--------------------------|--------------------------|
--5--5--6--5--5--5--6--5--|--5--5--6--5--5--5--6--5--|
--5--5--5--5--5--5--5--5--|--5--5--5--5--5--5--5--5--|
--5--5--7--5--5--5--7--5--|--5--5--7--5--5--5--7--5--|
--5--5--5--5--5--5--5--5--|--5--5--5--5--5--5--5--5--|
--------------------------|--------------------------|


  A chord diagramE MajorE  A chord diagramE MajorE  A chord diagramE MajorE  A chord diagramE MajorE  A chord diagramE MajorE  A chord diagramE MajorE  A chord diagramE MajorE  A chord diagramE MajorE     A chord diagramE MajorE  A chord diagramE MajorE  A chord diagramE MajorE  A chord diagramE MajorE  A chord diagramE MajorE  A chord diagramE MajorE  A chord diagramE MajorE  A chord diagramE MajorE
--------------------------|--------------------------|
--------6-----------6-----|--------1-----------1-----|
--------5-----------5-----|--------0-----------0-----|
--5--5--7--5--5--5--7--0--|--0--0--2--0--0--0--2--5--|
--5--5--5--5--5--5--5--0--|--0--0--0--0--0--0--0--5--|
--------------------------|--------------------------|


  A chord diagramE MajorE  A chord diagramE MajorE  A chord diagramE MajorE  A chord diagramE MajorE  A chord diagramE MajorE  A chord diagramE MajorE  A chord diagramE MajorE  A chord diagramE MajorE     A chord diagramE MajorE  A chord diagramE MajorE  A chord diagramE MajorE  A chord diagramE MajorE  A chord diagramE MajorE  A chord diagramE MajorE  A chord diagramE MajorE  A chord diagramE MajorE
--------------------------|--------------------------|
--------6--5--5--5--6--5--|--------6--5--5--5--6--5--|
--------5--5--5--5--5--5--|--------5--5--5--5--5--5--|
--5--5--7--5--5--5--7--5--|--5--5--7--5--5--5--7--5--|
--5--5--5--5--5--5--5--5--|--5--5--5--5--5--5--5--5--|
--------------------------|--------------------------|


  A chord diagramE MajorE  A chord diagramE MajorE  A chord diagramE MajorE  A chord diagramE MajorE  A chord diagramE MajorE  A chord diagramE MajorE  A chord diagramE MajorE  A chord diagramE MajorE     A chord diagramE MajorE  A chord diagramE MajorE  A chord diagramE MajorE  A chord diagramE MajorE  A chord diagramE MajorE  A chord diagramE MajorE  A chord diagramE MajorE  A chord diagramE MajorE
--------------------------|--------------------------||
--5--5--6--5--5--5--6-----|--------1-----1-----1--x--||
--5--5--5--5--5--5--5-----|--------0-----0-----0--x--||
--5--5--7--5--5--5--7--0--|--0--0--2--0--2--0--2--x--||
--5--5--5--5--5--5--5--0--|--0--0--0--0--0--0--0--x--||
--------------------------|--------------------------||








Standard Tuning


                                             A chord diagramD5D5
     W                   W                   A chord diagramE MajorE  A chord diagramE MajorE  A chord diagramE MajorE  A chord diagramE MajorE  A chord diagramE MajorE  A chord diagramE MajorE  A chord diagramE MajorE  A chord diagramE MajorE
A chord diagramE MajorE||-------------------|-------------------|--------------------------|
A chord diagramBB||-------------------|-------------------|--------------------------|
A chord diagramG+G||-------------------|-------------------|--2--2--2--2--2--2--2-----|
A chord diagramD MajorD||-------------------|-------------------|--0--0--0--0--0--0--0--2--|
A chord diagramA augmentedA||-------------------|-------------------|-----------------------0--|
A chord diagramE MajorE||-------------------|-------------------|--------------------------|


  A chord diagramA5A5                   A chord diagramD5D5
  A chord diagramE MajorE  A chord diagramE MajorE  A chord diagramE MajorE  A chord diagramE MajorE  A chord diagramE MajorE  A chord diagramE MajorE  A chord diagramE MajorE  A chord diagramE MajorE     A chord diagramE MajorE  A chord diagramE MajorE  A chord diagramE MajorE  A chord diagramE MajorE  A chord diagramE MajorE  A chord diagramE MajorE  A chord diagramE MajorE  A chord diagramE MajorE
--------------------------|--------------------------|
--------------------------|--------------------------|
-----------------------2--|--2--2--2--2--2--2--2--2--|
--2--2--2--2--2--2--4--0--|--0--0--0--0--0--0--0--0--|
--0--0--0--0--0--0--0-----|--------------------------|
--------------------------|--------------------------|


                                                  A chord diagramA5A5
  A chord diagramE MajorE  A chord diagramE MajorE  A chord diagramE MajorE  A chord diagramE MajorE  A chord diagramE MajorE  A chord diagramE MajorE  A chord diagramE MajorE  A chord diagramE MajorE     A chord diagramE MajorE  A chord diagramE MajorE  A chord diagramE MajorE  A chord diagramE MajorE  A chord diagramE MajorE  A chord diagramE MajorE  A chord diagramE MajorE  A chord diagramE MajorE
--------------------------|--------------------------|
--3-----------------------|--------------------------|
--2--2--2--2--2--2--2--2--|--2--2--2--2--2--2--2-----|
--0--0--0--0--0--0--0--0--|--0--0--0--0--0--0--0--2--|
--------------------------|-----------------------0--|
--------------------------|--------------------------|


                       A chord diagramD5D5
  A chord diagramE MajorE  A chord diagramE MajorE  A chord diagramE MajorE  A chord diagramE MajorE  A chord diagramE MajorE  A chord diagramE MajorE  A chord diagramE MajorE  A chord diagramE MajorE     A chord diagramE MajorE  A chord diagramE MajorE  A chord diagramE MajorE  A chord diagramE MajorE  A chord diagramE MajorE  A chord diagramE MajorE  A chord diagramE MajorE  A chord diagramE MajorE
--------------------------|--------------------------|
--------------------------|--------------------------|
-----------------------2--|--2--2--2--2--2--2--2--2--|
--2--2--2--2--2--2--4--0--|--0--0--0--0--0--0--0--0--|
--0--0--0--0--0--0--0-----|--------------------------|
--------------------------|--------------------------|


                       A chord diagramA5A5
  A chord diagramE MajorE  A chord diagramE MajorE  A chord diagramE MajorE  A chord diagramE MajorE  A chord diagramE MajorE  A chord diagramE MajorE  A chord diagramE MajorE  A chord diagramE MajorE     A chord diagramE MajorE  A chord diagramE MajorE  A chord diagramE MajorE  A chord diagramE MajorE  A chord diagramE MajorE  A chord diagramE MajorE  A chord diagramE MajorE  A chord diagramE MajorE
--------------------------|--------------------------|
--------------------------|--------------------------|
--2--2--2--2--2--2--2-----|--------------------------|
--0--0--0--0--0--0--0--2--|--2--2--2--2--2--2--4--2--|
-----------------------0--|--0--0--0--0--0--0--0--0--|
--------------------------|--------------------------|


                       A chord diagramD5D5
  A chord diagramE MajorE  A chord diagramE MajorE  A chord diagramE MajorE  A chord diagramE MajorE  A chord diagramE MajorE  A chord diagramE MajorE  A chord diagramE MajorE  A chord diagramE MajorE     A chord diagramE MajorE  A chord diagramE MajorE  A chord diagramE MajorE  A chord diagramE MajorE  A chord diagramE MajorE  A chord diagramE MajorE  A chord diagramE MajorE  A chord diagramE MajorE
--------------------------|--------------------------|
--------------------------|--------------------------|
-----------------------2--|--2--2--2--2--2--2--2--2--|
--2--2--2--2--2--2--4--0--|--0--0--0--0--0--0--0--0--|
--0--0--0--0--0--0--0-----|--------------------------|
--------------------------|--------------------------|


                             A chord diagramA5A5                   A chord diagramA5A5
  A chord diagramE MajorE  A chord diagramE MajorE  A chord diagramE MajorE  A chord diagramE MajorE  A chord diagramE MajorE  A chord diagramE MajorE  A chord diagramE MajorE  A chord diagramE MajorE     A chord diagramE MajorE  A chord diagramE MajorE  A chord diagramE MajorE  A chord diagramE MajorE  A chord diagramE MajorE  A chord diagramE MajorE  A chord diagramE MajorE  A chord diagramE MajorE
--------------------------|--------------------------|
--------------------------|--------------------------|
--2--2--2--2--2--2--4--2--|-----------------------2--|
--0--0--0--0--0--0--0--0--|--2--2--2--2-----2--4--2--|
--------------------------|--0--0--0--0--4--------0--|
--------------------------|--------------------------|


                       A chord diagramD5D5
  A chord diagramE MajorE  A chord diagramE MajorE  A chord diagramE MajorE  A chord diagramE MajorE  A chord diagramE MajorE  A chord diagramE MajorE  A chord diagramE MajorE  A chord diagramE MajorE     A chord diagramE MajorE  A chord diagramE MajorE  A chord diagramE MajorE  A chord diagramE MajorE  A chord diagramE MajorE  A chord diagramE MajorE  A chord diagramE MajorE  A chord diagramE MajorE     A chord diagramE MajorE  Q    A chord diagramE MajorE  A chord diagramE MajorE  A chord diagramE MajorE  A chord diagramE MajorE  A chord diagramE MajorE
--------------------------|--------------------------|-------------------------|
--------------------------|--------------------------|-------------------------|
--L--------------------2--|--2--2--2--2--4--4--4--4--|--2--4----2--2--2--2--2--|
--L--2--2--2--2--2--4--0--|--0--0--0--0--0--0--0--0--|--0--0----0--0--0--0--0--|
--L--0--0--0--0--0--0-----|--------------------------|-------------------------|
--------------------------|--------------------------|-------------------------|


   Q     Q    A chord diagramE MajorE   Q.          A chord diagramE MajorE    Q     A chord diagramE MajorE     Q    Q
--------------------------|------------------------------|
--13b------------13b------|--13br--L----13br~--L---------|
--------------------------|------------------------------|
--------------------------|------------------------------|
--------------------------|------------------------------|
--------------------------|------------------------------|


  H        A chord diagramE MajorE  Q.         A chord diagramE MajorE    A chord diagramE MajorE    A chord diagramE MajorE  A chord diagramE MajorE  A chord diagramE MajorE  A chord diagramE MajorE  Q
----------------------|-----------------------------|
--------------8b------|--8br--L--8g6----------------|
----------------------|---------------7--L----------|
----------------------|-----------------------------|
----------------------|-----------------------------|
----------------------|-----------------------------|


    A chord diagramD5D5                   A chord diagramA5A5                         A chord diagramD5D5
    A chord diagramE MajorE  A chord diagramE MajorE  A chord diagramE MajorE  A chord diagramE MajorE  A chord diagramE MajorE  A chord diagramE MajorE  A chord diagramE MajorE  A chord diagramE MajorE     A chord diagramE MajorE  A chord diagramE MajorE  A chord diagramE MajorE  A chord diagramE MajorE  A chord diagramE MajorE  A chord diagramE MajorE  A chord diagramE MajorE  A chord diagramE MajorE
|---------------------------|--------------------------|
|---------------------------|--------------------------|
|*--2--2--4--2--2--2--4-----|-----------------------2--|
|*--0--0--0--0--0--0--0--2--|--2--2--4--2--2--2--4--0--|
|------------------------0--|--0--0--0--0--0--0--0-----|
|---------------------------|--------------------------|


                                                                           A chord diagramA5A5
  A chord diagramE MajorE  A chord diagramE MajorE  Q    A chord diagramE MajorE  A chord diagramE MajorE  A chord diagramE MajorE  A chord diagramE MajorE     A chord diagramE MajorE  A chord diagramE MajorE  Q    A chord diagramE MajorE  A chord diagramE MajorE  A chord diagramE MajorE  A chord diagramE MajorE     A chord diagramE MajorE  A chord diagramE MajorE  A chord diagramE MajorE  A chord diagramE MajorE  A chord diagramE MajorE  A chord diagramE MajorE  A chord diagramE MajorE  A chord diagramE MajorE
-------------------------|-------------------------|--------------------------|
-------------------------|-------------------------|--------------------------|
--2--2--4----2--2--4--2--|--2--2--4----2--2--4--2--|--2--2--4--2--2--2--4-----|
--0--0--0----0--0--0--0--|--0--0--0----0--0--0--0--|--0--0--0--0--0--0--0--2--|
-------------------------|-------------------------|-----------------------0--|
-------------------------|-------------------------|--------------------------|


                       A chord diagramD5D5
  A chord diagramE MajorE  A chord diagramE MajorE  A chord diagramE MajorE  A chord diagramE MajorE  A chord diagramE MajorE  A chord diagramE MajorE  A chord diagramE MajorE  A chord diagramE MajorE     A chord diagramE MajorE  A chord diagramE MajorE  A chord diagramE MajorE  A chord diagramE MajorE  A chord diagramE MajorE  A chord diagramE MajorE  A chord diagramE MajorE  A chord diagramE MajorE
--------------------------|--------------------------|
--------------------------|--------------------------|
-----------------------2--|--2--2--4--2--2--2--4--2--|
--2--2--4--2--2--2--4--0--|--0--0--0--0--0--0--0--0--|
--0--0--0--0--0--0--0-----|--------------------------|
--------------------------|--------------------------|


                       A chord diagramA5A5                                                   A chord diagramD5D5
  A chord diagramE MajorE  A chord diagramE MajorE  A chord diagramE MajorE  A chord diagramE MajorE  A chord diagramE MajorE  A chord diagramE MajorE  A chord diagramE MajorE  A chord diagramE MajorE     Q    A chord diagramE MajorE  A chord diagramE MajorE  A chord diagramE MajorE  A chord diagramE MajorE  A chord diagramE MajorE  A chord diagramE MajorE     A chord diagramE MajorE  A chord diagramE MajorE  A chord diagramE MajorE  A chord diagramE MajorE  A chord diagramE MajorE  A chord diagramE MajorE  A chord diagramE MajorE  A chord diagramE MajorE
--------------------------|-------------------------|--------------------------|
--------------------------|-------------------------|--------------------------|
--2--2--4--2--2--2--4-----|-------------------------|-----------------------2--|
--0--0--0--0--0--0--0--2--|--2----4--2--2--2--4--2--|--2--2--4--2--2--2--4--0--|
-----------------------0--|--0----0--0--0--0--0--0--|--0--0--0--0--0--0--0-----|
--------------------------|-------------------------|--------------------------|


                                                     A chord diagramA5A5
  Q    Q    A chord diagramE MajorE  A chord diagramE MajorE  Q       A chord diagramE MajorE  A chord diagramE MajorE  A chord diagramE MajorE  A chord diagramE MajorE  A chord diagramE MajorE  A chord diagramE MajorE  A chord diagramE MajorE  A chord diagramE MajorE     A chord diagramE MajorE  A chord diagramE MajorE  A chord diagramE MajorE  A chord diagramE MajorE  A chord diagramE MajorE  A chord diagramE MajorE  A chord diagramE MajorE  A chord diagramE MajorE
-----------------------|--------------------------|--------------------------|
-----------------------|--------------------------|--------------------------|
--2----2----4--4--4----|--2--2--2--2--2--2--2--x--|--------------------------|
--0----0----0--0--0----|--0--0--0--0--0--0--0--x--|--2--2--4--2--2--2--4--2--|
-----------------------|--------------------------|--0--0--0--0--0--0--0--0--|
-----------------------|--------------------------|--------------------------|


                            A chord diagramD5D5                       A chord diagramD5D5
  A chord diagramE MajorE  A chord diagramE MajorE  A chord diagramE MajorE  A chord diagramE MajorE  A chord diagramE MajorE  A chord diagramE MajorE  Q       A chord diagramE MajorE  A chord diagramE MajorE  Q    A chord diagramE MajorE  A chord diagramE MajorE  Q       A chord diagramE MajorE  A chord diagramE MajorE  A chord diagramE MajorE  A chord diagramE MajorE  A chord diagramE MajorE  A chord diagramE MajorE  Q
-------------------------|------------------------|-------------------------|
-------------------------|------------------------|-------------------------|
-------------------------|--2--2--2----4--4--4----|--2--2--4--2--2--2--2----|
--2--2--2--2--2--2--2----|--0--0--0----0--0--0----|--0--0--0--0--0--0--0----|
--0--0--0--0--0--0--0----|------------------------|-------------------------|
-------------------------|------------------------|-------------------------|


  A chord diagramE MajorE   A chord diagramE MajorE   Q     H           A chord diagramE MajorE    Q     A chord diagramE MajorE    H           Q     Q     H
---------------10--------|------------10----L--------|--L----------10--------|
---------10--------------|---------------------------|-------10--------------|
--9b--L------------------|--9br--L-----9br--L--------|--L--------------------|
-------------------------|---------------------------|-----------------------|
-------------------------|---------------------------|-----------------------|
-------------------------|---------------------------|-----------------------|


   S   S  Q     A chord diagramE MajorE   H           Q    A chord diagramE MajorE   A chord diagramE MajorE   H
-----------------------------|--------------10--------|
--13br-L-------13b--L--------|--------------10--------|
---------14------------------|-------9b--L------------|
-----------------------------|------------------------|
-----------------------------|------------------------|
-----------------------------|------------------------|


  A chord diagramE MajorE    Q     A chord diagramE MajorE  H           Q    Q    H           W
------------10--L--------|--L------------------|-------------------|
------------10--L--------|--L------------------|-------------------|
--9br--L-----7--L--------|--L------------------|-------------------|
-------------------------|---------------------|-------------------|
-------------------------|---------------------|-------------------|
-------------------------|---------------------|-------------------|


  A chord diagramD5D5                   A chord diagramA5A5                         A chord diagramD5D5
  A chord diagramE MajorE  A chord diagramE MajorE  A chord diagramE MajorE  A chord diagramE MajorE  A chord diagramE MajorE  A chord diagramE MajorE  A chord diagramE MajorE  A chord diagramE MajorE     A chord diagramE MajorE  A chord diagramE MajorE  A chord diagramE MajorE  A chord diagramE MajorE  A chord diagramE MajorE  A chord diagramE MajorE  A chord diagramE MajorE  A chord diagramE MajorE     A chord diagramE MajorE  A chord diagramE MajorE  Q    A chord diagramE MajorE  A chord diagramE MajorE  A chord diagramE MajorE  A chord diagramE MajorE
--------------------------|--------------------------|-------------------------|
--------------------------|--------------------------|-------------------------|
--2--2--4--2--2--2--4-----|-----------------------2--|--2--2--4----2--2--4--2--|
--0--0--0--0--0--0--0--2--|--2--2--4--2--2--2--4--0--|--0--0--0----0--0--0--0--|
-----------------------0--|--0--0--0--0--0--0--0-----|-------------------------|
--------------------------|--------------------------|-------------------------|


                                                 A chord diagramA5A5                         A chord diagramD5D5
  A chord diagramE MajorE  A chord diagramE MajorE  Q    A chord diagramE MajorE  A chord diagramE MajorE  A chord diagramE MajorE  A chord diagramE MajorE     A chord diagramE MajorE  A chord diagramE MajorE  A chord diagramE MajorE  A chord diagramE MajorE  A chord diagramE MajorE  A chord diagramE MajorE  A chord diagramE MajorE  A chord diagramE MajorE     A chord diagramE MajorE  A chord diagramE MajorE  A chord diagramE MajorE  A chord diagramE MajorE  A chord diagramE MajorE  A chord diagramE MajorE  A chord diagramE MajorE  A chord diagramE MajorE
-------------------------|--------------------------|--------------------------|
-------------------------|--------------------------|--------------------------|
--2--2--4----2--2--4--2--|--2--2--4--2--2--2--4-----|-----------------------2--|
--0--0--0----0--0--0--0--|--0--0--0--0--0--0--0--2--|--2--2--4--2--2--2--4--0--|
-------------------------|-----------------------0--|--0--0--0--0--0--0--0-----|
-------------------------|--------------------------|--------------------------|


                                                  A chord diagramA5A5
  A chord diagramE MajorE  A chord diagramE MajorE  A chord diagramE MajorE  A chord diagramE MajorE  A chord diagramE MajorE  A chord diagramE MajorE  A chord diagramE MajorE  A chord diagramE MajorE     A chord diagramE MajorE  A chord diagramE MajorE  A chord diagramE MajorE  A chord diagramE MajorE  A chord diagramE MajorE  A chord diagramE MajorE  A chord diagramE MajorE  A chord diagramE MajorE     Q    A chord diagramE MajorE  A chord diagramE MajorE  A chord diagramE MajorE  A chord diagramE MajorE  A chord diagramE MajorE  A chord diagramE MajorE
--------------------------|--------------------------|-------------------------|
--------------------------|--------------------------|-------------------------|
--2--2--4--2--2--2--4--2--|--2--2--4--2--2--2--4-----|-------------------------|
--0--0--0--0--0--0--0--0--|--0--0--0--0--0--0--0--2--|--2----4--2--2--2--4--2--|
--------------------------|-----------------------0--|--0----0--0--0--0--0--0--|
--------------------------|--------------------------|-------------------------|


                       A chord diagramD5D5
  A chord diagramE MajorE  A chord diagramE MajorE  A chord diagramE MajorE  A chord diagramE MajorE  A chord diagramE MajorE  A chord diagramE MajorE  A chord diagramE MajorE  A chord diagramE MajorE     Q    Q    A chord diagramE MajorE  A chord diagramE MajorE  Q       A chord diagramE MajorE  A chord diagramE MajorE  A chord diagramE MajorE  A chord diagramE MajorE  A chord diagramE MajorE  A chord diagramE MajorE  A chord diagramE MajorE  A chord diagramE MajorE
--------------------------|-----------------------|--------------------------|
--------------------------|-----------------------|--------------------------|
-----------------------2--|--2----2----4--4--4----|--2--2--2--2--2--2--2--x--|
--2--2--4--2--2--2--4--0--|--0----0----0--0--0----|--0--0--0--0--0--0--0--x--|
--0--0--0--0--0--0--0-----|-----------------------|--------------------------|
--------------------------|-----------------------|--------------------------|


  A chord diagramA5A5
  A chord diagramE MajorE  A chord diagramE MajorE  A chord diagramE MajorE  A chord diagramE MajorE  A chord diagramE MajorE  A chord diagramE MajorE  A chord diagramE MajorE  A chord diagramE MajorE     A chord diagramE MajorE  A chord diagramE MajorE  A chord diagramE MajorE  A chord diagramE MajorE  A chord diagramE MajorE  A chord diagramE MajorE  Q       A chord diagramE MajorE  A chord diagramE MajorE  Q    A chord diagramE MajorE  A chord diagramE MajorE  Q
--------------------------|-------------------------|------------------------|
--------------------------|-------------------------|------------------------|
--------------------------|-------------------------|--2--2--2----4--4--4----|
--2--2--4--2--2--2--4--2--|--2--2--2--2--2--2--2----|--0--0--0----0--0--0----|
--0--0--0--0--0--0--0--0--|--0--0--0--0--0--0--0----|------------------------|
--------------------------|-------------------------|------------------------|


  A chord diagramE MajorE  A chord diagramE MajorE  A chord diagramE MajorE  A chord diagramE MajorE  A chord diagramE MajorE  A chord diagramE MajorE  Q        W
-------------------------|---------------------|
-------------------------|--13b----------------|
--2--2--4--2--2--2--2----|---------------------|
--0--0--0--0--0--0--0----|---------------------|
-------------------------|---------------------|
-------------------------|---------------------|


   |-----3-----|
   A chord diagramE MajorE    A chord diagramE MajorE      A chord diagramE MajorE  Q    H            A chord diagramE MajorE    Q       A chord diagramE MajorE   A chord diagramE MajorE   Q      A chord diagramE MajorE
--------------------------------|------------------------------------|
--13br--L--13g10----------------|------------------------------------|
--------------------------------|--12b--12pb----12b--L--12b----12br--|
--------------------------------|------------------------------------|
--------------------------------|------------------------------------|
--------------------------------|------------------------------------|


                               A chord diagramD5D5
  Q     A chord diagramE MajorE   A chord diagramE MajorE  A chord diagramE MajorE  A chord diagramE MajorE  Q         A chord diagramE MajorE  A chord diagramE MajorE  A chord diagramE MajorE  A chord diagramE MajorE  A chord diagramE MajorE  A chord diagramE MajorE  Q       H         H
---------------------------||-------------------------|-----------10--------|
---------------------------||-------------------------|-----------10--------|
--L----10-----------------*||--2--2--4--2--2--2--2----|---------------------|
-----------12--L----------*||--0--0--0--0--0--0--0----|--0------------------|
---------------------------||-------------------------|---------------------|
---------------------------||-------------------------|---------------------|


   A chord diagramE MajorE    Q     A chord diagramE MajorE  H            Q      Q     Q     Q
-------------10--L--------|---------10----10-----------|
-------------10--L--------|--13b----------------13b----|
--12b--12-----------------|----------------------------|
--------------------------|----------------------------|
--------------------------|----------------------------|
--------------------------|----------------------------|


                             A chord diagramD/AD/A
   A chord diagramE MajorE   Q     A chord diagramE MajorE  H            Q    Q    Q     Q        A chord diagramE MajorE    Q     A chord diagramE MajorE  H
--10---------------------|--10--------------10----|-------------10--L--------|
------10----10--L--------|--10--------------10----|-------------10--L--------|
-------------------------|------------------------|--12br--L-----------------|
-------------------------|--------0----0----------|--------------0--L--------|
-------------------------|---0---------------0----|--------------------------|
-------------------------|------------------------|--------------------------|


  Q     Q     A chord diagramE MajorE   Q     A chord diagramE MajorE      A chord diagramE MajorE    Q     A chord diagramE MajorE  A chord diagramE MajorE   A chord diagramE MajorE   Q
---------------------------|-------------10-----10--10----|
-------13b-------13b-------|--13br--L---------------------|
---------------------------|------------------------------|
---------------------------|------------------------------|
---------------------------|------------------------------|
---------------------------|------------------------------|


  A chord diagramD5D5                   A chord diagramA5A5                         A chord diagramD5D5
  A chord diagramE MajorE  A chord diagramE MajorE  A chord diagramE MajorE  A chord diagramE MajorE  A chord diagramE MajorE  A chord diagramE MajorE  A chord diagramE MajorE  A chord diagramE MajorE     A chord diagramE MajorE  A chord diagramE MajorE  A chord diagramE MajorE  A chord diagramE MajorE  A chord diagramE MajorE  A chord diagramE MajorE  A chord diagramE MajorE  A chord diagramE MajorE     A chord diagramE MajorE  A chord diagramE MajorE  Q    A chord diagramE MajorE  A chord diagramE MajorE  A chord diagramE MajorE  A chord diagramE MajorE
--------------------------|--------------------------|-------------------------|
--------------------------|--------------------------|-------------------------|
--2--2--4--2--2--2--4-----|-----------------------2--|--2--2--2----2--2--4--2--|
--0--0--0--0--0--0--0--2--|--2--2--4--2--2--2--4--0--|--0--0--0----0--0--0--0--|
-----------------------0--|--0--0--0--0--0--0--0-----|-------------------------|
--------------------------|--------------------------|-------------------------|


                                                 A chord diagramA5A5                         A chord diagramD5D5
  A chord diagramE MajorE  A chord diagramE MajorE  Q    A chord diagramE MajorE  A chord diagramE MajorE  A chord diagramE MajorE  A chord diagramE MajorE     A chord diagramE MajorE  A chord diagramE MajorE  A chord diagramE MajorE  A chord diagramE MajorE  A chord diagramE MajorE  A chord diagramE MajorE  A chord diagramE MajorE  A chord diagramE MajorE     A chord diagramE MajorE  A chord diagramE MajorE  A chord diagramE MajorE  A chord diagramE MajorE  A chord diagramE MajorE  A chord diagramE MajorE  A chord diagramE MajorE  A chord diagramE MajorE
-------------------------|--------------------------|--------------------------|
-------------------------|--------------------------|--------------------------|
--2--2--4----2--2--4--2--|--2--2--4--2--2--2--4-----|-----------------------2--|
--0--0--0----0--0--0--0--|--0--0--0--0--0--0--0--2--|--2--2--4--2--2--2--4--0--|
-------------------------|-----------------------0--|--0--0--0--0--0--0--0-----|
-------------------------|--------------------------|--------------------------|


                                                  A chord diagramA5A5
  A chord diagramE MajorE  A chord diagramE MajorE  A chord diagramE MajorE  A chord diagramE MajorE  A chord diagramE MajorE  A chord diagramE MajorE  A chord diagramE MajorE  A chord diagramE MajorE     A chord diagramE MajorE  A chord diagramE MajorE  A chord diagramE MajorE  A chord diagramE MajorE  A chord diagramE MajorE  A chord diagramE MajorE  A chord diagramE MajorE  A chord diagramE MajorE     Q    A chord diagramE MajorE  A chord diagramE MajorE  A chord diagramE MajorE  A chord diagramE MajorE  A chord diagramE MajorE  A chord diagramE MajorE
--------------------------|--------------------------|-------------------------|
--------------------------|--------------------------|-------------------------|
--2--2--4--2--2--2--4--2--|--2--2--4--2--2--2--4-----|-------------------------|
--0--0--0--0--0--0--0--0--|--0--0--0--0--0--0--0--2--|--2----4--2--2--2--4--2--|
--------------------------|-----------------------0--|--0----0--0--0--0--0--0--|
--------------------------|--------------------------|-------------------------|


                       A chord diagramD5D5
  A chord diagramE MajorE  A chord diagramE MajorE  A chord diagramE MajorE  A chord diagramE MajorE  A chord diagramE MajorE  A chord diagramE MajorE  A chord diagramE MajorE  A chord diagramE MajorE     Q    Q    A chord diagramE MajorE  A chord diagramE MajorE  Q       A chord diagramE MajorE  A chord diagramE MajorE  A chord diagramE MajorE  A chord diagramE MajorE  A chord diagramE MajorE  A chord diagramE MajorE  A chord diagramE MajorE  A chord diagramE MajorE
--------------------------|-----------------------|--------------------------|
--------------------------|-----------------------|--------------------------|
-----------------------2--|--2----2----4--4--4----|--2--2--2--2--2--2--2-----|
--2--2--4--2--2--2--4--0--|--0----0----0--0--0----|--0--0--0--0--0--0--0--x--|
--0--0--0--0--0--0--0-----|-----------------------|-----------------------x--|
--------------------------|-----------------------|--------------------------|


  A chord diagramA5A5                                                   A chord diagramD5D5
  A chord diagramE MajorE  A chord diagramE MajorE  A chord diagramE MajorE  A chord diagramE MajorE  A chord diagramE MajorE  A chord diagramE MajorE  A chord diagramE MajorE  A chord diagramE MajorE     A chord diagramE MajorE  A chord diagramE MajorE  A chord diagramE MajorE  A chord diagramE MajorE  A chord diagramE MajorE  A chord diagramE MajorE  Q       A chord diagramE MajorE  A chord diagramE MajorE  Q    A chord diagramE MajorE  A chord diagramE MajorE  Q
--------------------------|-------------------------|------------------------|
--------------------------|-------------------------|------------------------|
--------------------------|-------------------------|--2--2--2----4--4--4----|
--2--2--4--2--2--2--4--2--|--2--2--2--2--2--2--2----|--0--0--0----0--0--0----|
--0--0--0--0--0--0--0--0--|--0--0--0--0--0--0--0----|------------------------|
--------------------------|-------------------------|------------------------|


  A chord diagramE MajorE  A chord diagramE MajorE  A chord diagramE MajorE  A chord diagramE MajorE  A chord diagramE MajorE  A chord diagramE MajorE  Q       A chord diagramE MajorE  A chord diagramE MajorE  A chord diagramE MajorE   A chord diagramE MajorE  A chord diagramE MajorE  A chord diagramE MajorE  A chord diagramE MajorE  A chord diagramE MajorE
-------------------------|---------------------------|
-------------------------|---------------------------|
--2--2--4--2--2--2--2----|--2------------2--2--4--2--|
--0--0--0--0--0--0--0----|--0--0--3S--4--0--0--0--0--|
-------------------------|---------------------------|
-------------------------|---------------------------|


  A chord diagramE MajorE  A chord diagramE MajorE  A chord diagramE MajorE   A chord diagramE MajorE  A chord diagramE MajorE  A chord diagramE MajorE  A chord diagramE MajorE  A chord diagramE MajorE     A chord diagramE MajorE  A chord diagramE MajorE  A chord diagramE MajorE   A chord diagramE MajorE  A chord diagramE MajorE  A chord diagramE MajorE  A chord diagramE MajorE  A chord diagramE MajorE
---------------------------|---------------------------|
---------------------------|---------------------------|
--2--2---------2--2--4--2--|--2------------2--2--4--2--|
--0--0--3S--4--0--0--0--0--|--0--0--3S--4--0--0--0--0--|
---------------------------|---------------------------|
---------------------------|---------------------------|


                                                   A chord diagramA5A5
  A chord diagramE MajorE  A chord diagramE MajorE  A chord diagramE MajorE   A chord diagramE MajorE  A chord diagramE MajorE  A chord diagramE MajorE  A chord diagramE MajorE  A chord diagramE MajorE     A chord diagramE MajorE  A chord diagramE MajorE  A chord diagramE MajorE  A chord diagramE MajorE  A chord diagramE MajorE  A chord diagramE MajorE  A chord diagramE MajorE  A chord diagramE MajorE
---------------------------|--------------------------|
---------------------------|--------------------------|
--2--2---------2--2--4--2--|--2--2--4--2--2--2--4-----|
--0--0--3S--4--0--0--0--0--|--0--0--0--0--0--0--0--2--|
---------------------------|-----------------------0--|
---------------------------|--------------------------|


                       A chord diagramD5D5
  A chord diagramE MajorE  A chord diagramE MajorE  A chord diagramE MajorE  A chord diagramE MajorE  A chord diagramE MajorE  A chord diagramE MajorE  A chord diagramE MajorE  A chord diagramE MajorE     A chord diagramE MajorE  A chord diagramE MajorE  Q    A chord diagramE MajorE  A chord diagramE MajorE  A chord diagramE MajorE  A chord diagramE MajorE     A chord diagramE MajorE  A chord diagramE MajorE  Q    A chord diagramE MajorE  A chord diagramE MajorE  A chord diagramE MajorE  A chord diagramE MajorE
--------------------------|-------------------------|-------------------------|
--------------------------|-------------------------|-------------------------|
-----------------------2--|--2--2--4----2--2--4--2--|--2--2--4----2--2--4--2--|
--2--2--4--2--2--2--4--0--|--0--0--0----0--0--0--0--|--0--0--0----0--0--0--0--|
--0--0--0--0--0--0--0-----|-------------------------|-------------------------|
--------------------------|-------------------------|-------------------------|


                       A chord diagramA5A5
  A chord diagramE MajorE  A chord diagramE MajorE  A chord diagramE MajorE  A chord diagramE MajorE  A chord diagramE MajorE  A chord diagramE MajorE  A chord diagramE MajorE  A chord diagramE MajorE     A chord diagramE MajorE  A chord diagramE MajorE  A chord diagramE MajorE  A chord diagramE MajorE  A chord diagramE MajorE  A chord diagramE MajorE  A chord diagramE MajorE  A chord diagramE MajorE
--------------------------|--------------------------||
--------------------------|--------------------------||
--2--2--4--2--2--2--4-----|-----------------------2--||
--0--0--0--0--0--0--0--2--|--2--2--4--2--2--2--4--0--||
-----------------------0--|--0--0--0--0--0--0--0-----||
--------------------------|--------------------------||



Duration 🏷Legend
---------------
W - whole
H - half
Q - quarter
A chord diagramE MajorE - 8th
S - 16th
T - 32nd
X - 64th
. - note dotted
|-n-|  - n-tuplets


Tablature 🏷Legend
----------------
L - tied note
x - dead note
g - grace note
(n) - ghost note
> - accentuded note
NH - natural harmonic
AH - artificial harmonic
TH - tapped harmonic
SH - semi harmonic
PH - pitch harmonic
h - hammer on
p - pull off
b - bend
br - bendRelease
pb - preBend
pbr - preBendRelease
brb - bendReleaseBend
\n/ - tremolo bar dip
\n - tremolo bar dive
-/n - tremolo bar Release up
/n\ - tremolo bar inverted dip
/n - tremolo bar return
-\n - tremolo bar Release down
S - shift slide
s - legato slide
/ -  slide into from below or out of upwards
\ -  slide into from above or out of downwards
~ - vibrato
W - wide vibrato
tr - trill
TP - tremolo picking
T - tapping
S - slap
P - pop
< - fade in
^ - brush up
v - brush down

Other versions of Rip This Joint

Rip this jointChords
Rip this joint (Ver. 2)Chords

Almost there ...

Sign in to get your own page with links to favourite songs and more. You are just one click away...

Login with Facebook Login with Google