Log in

One click and you are in

Login with Facebook Login with Google

Why sign up and log in

Guitar Tabs Explorer
The Rolling Stones bass tabs for Rip this joint

Rip This Joint bass tab - The Rolling Stones

The Rolling Stones bass tabs for Rip this joint

Bass tabs with lyrics

Bass


   W          W          Q  Q  Q  Q
G||-------------------|-------------------|----------------------|
D||-------------------|-------------------|-------4----7----4----|
A||-------------------|-------------------|--5-------------------|
E||-------------------|-------------------|----------------------|
 Q  Q  Q  Q    E E E E E E E E   E E E E Q  Q
----------------------|--------------------4--4--|--7--7--4--4------------|
-----------------4----|--------4--4--7--7--------|--------------7----4----|
-------4----7---------|--5--5--------------------|------------------------|
--5-------------------|--------------------------|------------------------|


 Q  Q  Q  Q    Q  Q  Q  Q    E E E E Q  Q
-----------------4----|--7----4--------------|-------------------4----|
-------4----7---------|-----------------4----|--------4--4--7---------|
--5-------------------|------------7---------|--5--5------------------|
----------------------|----------------------|------------------------|


 E E E E Q  Q    Q  Q  Q  Q    E E Q  Q  Q
-------------------4----|----------------------|-----------------------|
--------4--4--7---------|-----------------4----|--7--7--4--------------|
--5--5------------------|-------4----7---------|-------------7----4----|
------------------------|--5-------------------|-----------------------|


 Q  E E Q  E E   Q  E E E E Q    Q  Q  Q  Q
------------------------|------------------------|----------------------|
-------------7----7-----|------------------------|-----------------4----|
--5----5----------------|--5----5-----5--5--5----|-------4----7---------|
------------------------|------------------------|--5-------------------|

 Q  Q  Q  Q    E E Q  Q  Q    E E Q  E E Q
----------------------|-----------------------|------------------------|
--7----4--------------|-------------7----7----|------------------------|
------------7----4----|--5--5--5--------------|--5--5--5----5--5--5----|
----------------------|-----------------------|------------------------|


 H    E E Q    E E Q  E E Q    E E E E E E E E
----------------------|--------7----------7----|--------------------4--4--|
-----------7----------|------------------------|--------4--4--7--7--------|
--5-----------5--5----|--5--5-------5--5-------|--5--5--------------------|
----------------------|------------------------|--------------------------|


 E E E E E E Q     Q  Q  Q  Q    Q  Q  Q  Q
--------------------4----||-----------------------|----------------------|
--------4--4--7--7-------||*-------4----7----4----|----------------------|
--5--5-------------------||*--5-------------------|-------7---------7----|
-------------------------||-----------------------|--5---------5---------|


 Q  Q  Q  Q    Q  Q  Q  Q    Q  Q  Q  Q
----------------------|----------------------|----------------------|
-------4----7----4----|-------7---------7----|-------7---------7----|
--5-------------------|--5---------5---------|--5---------5---------|
----------------------|----------------------|----------------------|


 Q  Q  Q  Q    Q  Q  Q  Q    E E Q  Q  Q
----------------------|--7----4---------4----|-----------------------|
----------------------|------------7---------|-------------4----7----|
-------7---------7----|----------------------|--5--5--5--------------|
--5---------5---------|----------------------|-----------------------|


 Q  Q  Q  Q    Q  Q  Q  Q    E E Q  Q  Q
----------------------|----------------------|-----------------------|
--7----4---------4----|-------4----7----4----|-------------5----5----|
------------7---------|--5-------------------|--5--5--5--------------|
----------------------|----------------------|-----------------------|


 Q  E E E E Q    Q  Q  Q  Q    Q  Q  Q  Q
------------------------|----------------------|----------------------|
----------5--L--5--5----|----------------------|-------4----5----7----|
--5----5----------------|-------4----5----7----|--5-------------------|
------------------------|--5-------------------|----------------------|


 E E Q  Q  Q    E E Q  E E Q    Q  Q  Q  Q
-----------------------|------------------------|----------------------|
-------------5----5----|------------------------|----------------------|
--5--5--5--------------|--5--5--5----5--5--5----|--5---------5---------|
-----------------------|------------------------|----------------------|


 E E E E H      Q  Q  Q  Q    E E E E H
-----------------------|----------------------|-----------------------|
-----------------------|----------------------|-----------------------|
--5--5-----5-----------|----------------------|-----------------------|
-----------------------|--5---------5---------|--5--5-----5-----------|


 Q  Q  Q  Q    E E E E H      W
----------------------|-----------------------|-------------------|
----------------------|-----------------------|-------------------|
--5---------5---------|--5--5-----5-----------|-------------------|
----------------------|-----------------------|--5----------------|


 E E E E Q  Q    Q  Q  Q  Q    Q  Q  Q  Q
------------------------|----------------------|----------------------|
------------------------|------------4----7----|----------------------|
--------------3----4----|--5----5--------------|------------4----7----|
--5--5-----5------------|----------------------|--5----5--------------|


 E E Q  Q  Q    E E Q  Q  Q    Q  Q  E E Q
-----------------------|--7--7--4--------------|-----------------------|
-------------4----7----|-------------7----4----|------------4--4--7----|
--5--5--5--------------|-----------------------|--5----5---------------|
-----------------------|-----------------------|-----------------------|


 Q  Q  Q  Q    Q  Q  Q  Q    Q  Q  Q  Q
----------------------|----------------------|----------------------|
----------------------|------------4----7----|------------4----7----|
------------4----7----|--5----5--------------|--5----5--------------|
--5----5--------------|----------------------|----------------------|


 Q  Q  Q  Q    Q  Q  Q  Q    E E Q  Q  Q
----------------------|----------------------|-----------------------|
-----------------4----|--7----4--------------|-------------5----5----|
-------4----7---------|------------7----4----|--5--5--5--------------|
--5-------------------|----------------------|-----------------------|


 E E Q  E E Q    Q  Q  Q  Q    Q  Q  Q  Q
------------------------|----------------------|----------------------|
------------------------|-----------------4----|--7----4--------------|
--5--5--5----5--5--5----|-------4----7---------|------------7----4----|
------------------------|--5-------------------|----------------------|


 Q  Q  E E Q    E E Q  Q  Q    E E E E Q  Q
-----------------------|-----------------------|------------------------|
------------7--7--7----|-----------------------|------------------------|
--5----5---------------|--5--5--5----5----0----|--5--5-----5--5----0----|
-----------------------|-----------------------|------------------------|


 E E E E Q  Q    E E E E E E Q    Q  Q  Q  Q
------------------------|--------------7--7--4----|-----------------------||
--------------7---------|-------------------------|--7----4--------------*||
--5--5-----5-------5----|--5--5-----5-------------|------------7----5----*||
------------------------|-------------------------|-----------------------||


 E E Q  E E Q    Q  E E Q  Q    E E E E H
------------------------|-----------------------|-----------------------|
------------------------|-----------------------|-----------------------|
--5--5--5----0--0--0----|--5-------5--5---------|--5--5-----5-----------|
------------------------|-----------------------|-----------------------|


 Q  Q  Q  Q    E E E E Q  E E   Q  Q  Q  Q
----------------------|-------------------------|----------------------|
----------------------|-------------------------|----------------------|
----------------------|-------------------------|--5---------5----5----|
--5---------5---------|--5--5-----5----------5--|----------------------|


                     |--3-|
 E E E E Q  E E   H.      Q  E   Q  Q  Q  Q
-------------------------|-----------------------|----------------------|
-------------------------|-----------------------|----------------------|
--5--5-----5--L-------5--|--------------------5--|------------3----4----|
-------------------------|--5------------L-------|--5----5--------------|


 Q  Q  Q  Q    Q  Q  Q  Q    Q  Q  Q  Q
----------------------|----------------------|----------------------|
------------4----4----|--7----7----7---------|------------4----7----|
--5----5--------------|----------------------|--5----5--------------|
----------------------|-----------------5----|----------------------|


 E E Q  Q  Q    E E Q  Q  Q    Q  Q  Q  Q
--4--4-----------------|--7--7------------4----|----------------------|
--------7----4---------|-------------7---------|----------------------|
------------------5----|--------7--------------|-------4----5----7----|
-----------------------|-----------------------|--5-------------------|


 Q  Q  Q  Q    Q  Q  Q  Q    Q  Q  Q  Q
-----------------4----|----------------------|----------------------|
-------4----7---------|-------4----5----7----|------------7----7----|
--5-------------------|--5-------------------|----------------------|
----------------------|----------------------|--5----5--------------|


 Q  Q  Q  Q    Q  Q  E E Q    E E Q  E E Q
----------------------|-----------------------|------------------------|
-------4----7----4----|------------7--7--7----|------------------------|
--7-------------------|--5----5---------------|--5--5--5----5--5--5----|
----------------------|-----------------------|------------------------|


 Q  Q  Q  Q    Q  Q  Q  Q    Q  Q  E E Q
----------------------|----------------------|-----------------------|
-----------------4----|--7----4--------------|------------7--7--7----|
-------4----7---------|------------7----4----|--5----5---------------|
--5-------------------|----------------------|-----------------------|


 E E Q  E E Q    Q  Q  Q  Q    E E Q  Q  Q
------------------------|------------7----4----|-----------------------|
------------------------|----------------------|--7--7--4--------------|
--5--5--5----5--5--5----|--5----5--------------|-------------7----5----|
------------------------|----------------------|-----------------------|


 Q  Q  Q  Q    E E Q  Q  Q    Q  Q  Q  Q
------------7----4----|-----------------------|----------------------|
----------------------|--7--7--4--------------|-----------------4----|
--5----5--------------|-------------7----5----|--5---------5---------|
----------------------|-----------------------|-------5--------------|


 Q  Q  Q  Q    E E Q  Q  Q    E E Q  Q  Q
----------------------|-----------------------|-----------------------|
----------------------|------------------4----|------------------4----|
-------4----5----7----|--5--5--5----5---------|--5--5--5----5---------|
--5-------------------|-----------------------|-----------------------|


 Q  Q  Q  Q    Q  Q  Q  Q
----------------------|----------------------||
------------4---------|----------------------||
--5----5---------5----|------------4----7----||
----------------------|--5----5--------------||



Duration 🏷Legend
---------------
W - whole
H - half
Q - quarter
E - 8th
S - 16th
T - 32nd
X - 64th
. - note dotted
|-n-| - n-tuplets


Tablature 🏷Legend
----------------
L - tied note
x - dead note
g - grace note
(n) - ghost note
> - accentuded note
NH - natural harmonic
AH - artificial harmonic
TH - tapped harmonic
SH - semi harmonic
PH - pitch harmonic
h - hammer on
p - pull off
b - bend
br - bendRelease
pb - preBend
pbr - preBendRelease
brb - bendReleaseBend
\n/ - tremolo bar dip
\n - tremolo bar dive
-/n - tremolo bar Release up
/n\ - tremolo bar inverted dip
/n - tremolo bar return
-\n - tremolo bar Release down
S - shift slide
s - legato slide
/ - slide into from below or out of upwards
\ - slide into from above or out of downwards
~ - vibrato
W - wide vibrato
tr - trill
TP - tremolo picking
T - tapping
S - slap
P - pop
< - fade in
^ - brush up
v - brush down

Almost there ...

Sign in to get your own page with links to favourite songs and more. You are just one click away...

Login with Facebook Login with Google