Search tabs and chords

Browse bands and artists

A B C D E F G H I J K L M N O P Q R S T U V W X Y Z #

Log in

[ Register here | Forgot password ]

Guitar Tabs Explorer
Print

Bass tabs :

Mothers Little Helper bass tab by The Rolling Stones

Mothers Little Helper by The Rolling Stones

Intro
  What a drag it is getting old...
G|--------------------------------------------------|
D|--------------------------------------------------|
A|---------------------------7-----7-----7-----7----|
E|------------------------------7-----7-----7-----7-|

G|----------------------------|
D|----------8/9-----------8/9-|
A|-7-----7-------7-----7------|
E|----7-------------7---------|

Verse 1
G|-------------------------------------------------------------------|
D|----------8/9------------8/9------------8/9------------------------|
A|-7-----7--------7-----7--------7-----7--------7-8--8--------10-----|
E|----7--------------7--------------7-------------------9--9------10-|

                   (Break)
G|-----------------------------------------------------------|
D|----------------------------8/9----------8/9-----------8/9-|
A|-10-----------------------------7-----7-------7-----7------|
E|-----10---8--8-7--5----------------7-------------7---------|

G|----------------------------|
D|----------8/9-----------8/9-|
A|-7-----7-------7-----7------|
E|----7-------------7---------|

Verse 2
G|-------------------------------------------------------------------|
D|----------8/9------------8/9------------8/9------------------------|
A|-7-----7--------7-----7--------7-----7--------7-8--8--------10-----|
E|----7--------------7--------------7-------------------9--9------10-|

                   (Break)
G|-----------------------------------------------------------|
D|----------------------------8/9----------8/9-----------8/9-|
A|-10-----------------------------7-----7-------7-----7------|
E|-----10---8--8-7--5----------------7-------------7---------|

G|------------------------------|
D|----------8/9-----------8/9-7-|
A|-7-----7-------7-----7--------|
E|----7-------------7-----------|

Bridge
G|--------------------------------------------------------|
D|--------------------------------------------------------|
A|------------------------------10--10--10--10------------|
E|-8--8--8--8---10--10--10--10-----------------8--8--8--8-|

G|---------------------------------------------|
D|---------------------------8/9-----------8/9-|
A|------------------7-----7-------7-----7------|
E|-10--10--10--10------7-------------7---------|

Verse 3
G|-------------------------------------------------------------------|
D|----------8/9------------8/9------------8/9------------------------|
A|-7-----7--------7-----7--------7-----7--------7-8--8--------10-----|
E|----7--------------7--------------7-------------------9--9------10-|

                   (Break)
G|-----------------------------------------------------------|
D|----------------------------8/9----------8/9-----------8/9-|
A|-10-----------------------------7-----7-------7-----7------|
E|-----10---8--8-7--5----------------7-------------7---------|

G|------------------------------|
D|----------8/9-----------8/9-7-|
A|-7-----7-------7-----7--------|
E|----7-------------7-----------|

Bridge
G|--------------------------------------------------------|
D|--------------------------------------------------------|
A|------------------------------10--10--10--10------------|
E|-8--8--8--8---10--10--10--10-----------------8--8--8--8-|

G|---------------------------------------------|
D|---------------------------8/9-----------8/9-|
A|------------------7-----7-------7-----7------|
E|-10--10--10--10------7-------------7---------|

Verse 4
G|-------------------------------------------------------------------|
D|----------8/9------------8/9------------8/9------------------------|
A|-7-----7--------7-----7--------7-----7--------7-8--8--------10-----|
E|----7--------------7--------------7-------------------9--9------10-|

                   (Break)
G|-----------------------------------------------------------|
D|----------------------------8/9----------8/9-----------8/9-|
A|-10-----------------------------7-----7-------7-----7------|
E|-----10---8--8-7--5----------------7-------------7---------|

                                           (END)
G|---------------------------------------------|
D|----------8/9--------------------------------|
A|-7-----7-------7-----7-7-8-9-10-10--------10-|
E|----7-------------7----------------10-10-----|

"Mother's Little Helper" is a song off of The Rolling Stones' 1966 Album "Aftermath". "Mother's Little Helper" was released as single in USA, Canada and Germany. Bass guitar is played by Bill Wyman.

Comments

The Rolling Stones bass tabs for Mothers little helper