Log in

One click and you are in

Login with Facebook Login with Google

Why sign up and log in

Guitar Tabs Explorer
The Rolling Stones tabs for Flight 505

Guitar tabs with lyrics

FLIGHT 505

As recorded by The Rolling Stones
(From the 1966 Album AFTERMATH)

Words and Music by Mick Jagger & Keith Richards

Transcribed by Slowhand
Gtr I (E A D G B E) - 'Keith Richards - Electric Guitar'
Gtr II (E A D G B E) - 'Brian Jones - Electric Guitar'
Gtr III (E A D G B E) - 'Keith Richards - Electric Guitar'
Gtr IV (E A D G B E) - 'Ian Stewart - Piano (High Part)'


 Intro
  Q=134
  N.C.              A chord diagramEb/FEb/F        Bb/Ab       N.C.
 4/4
  Gtr IV (Piano arr. for Gtr.)
                     TP          TP
  H    A chord diagramE MajorE  A chord diagramE MajorE  A chord diagramE MajorE  A chord diagramE MajorE    W           W          A chord diagramE MajorE  A chord diagramE MajorE  A chord diagramE MajorE  A chord diagramE MajorE  A chord diagramE MajorE  A chord diagramE MajorE  A chord diagramE MajorE  A chord diagramE MajorE
|-----------------|-15--------|-13--------|---17-16-15-13----------|
|--------15-17-15-|-16--------|-15--------|---------------12-11-10-|
|-----------------|-15--------|-15--------|---17-16-15-14-13-12-10-|
|-----------------|-15--------|-18--------|------------------------|
|-----------------|-----------|-----------|------------------------|
|-----------------|-----------|-----------|------------------------|


                        B°/F            A chord diagramBb/DBb/D         B°/F
                                                  TP
   A chord diagramE MajorE  A chord diagramE MajorE A chord diagramE MajorE A chord diagramE MajorE A chord diagramE MajorE A chord diagramE MajorE  A chord diagramE MajorE  A chord diagramE MajorE   A chord diagramE MajorE Q.   +H        A chord diagramE MajorE  Q.    Q  Q
|---------------------|---------------|-----------------|
|-10-10-9-8-6---------|-6-6----(6)----|--------------6--|
|-------------7-10-10-|-7-7----(7)----|--7--------7--7--|
|-10-10-9-8-7-5-10-10-|-9-9----(9)----|--8--8-----8--9--|
|----------------8--8-|-8-8----(8)----|--8--8-----8--8--|
|---------------------|---------------|-10-10----10-----|

  A chord diagramFF    B°/F         A chord diagramFF                        Bsus4/A
  A chord diagramE MajorE Q  A chord diagramE MajorE +A chord diagramE MajorE  A chord diagramE MajorE Q    A chord diagramE MajorE Q.   A chord diagramE MajorE Q  A chord diagramE MajorE   +A chord diagramE MajorE  Q.   A chord diagramE MajorE Q  A chord diagramE MajorE
|-----------------|---------------|-----------------|
|------6-(6)------|-------------5-|-(5)------5----5-|
|-5----7-(7)---7--|-5------5-5--4-|-(4)------4----4-|
|-7-7--9-(9)---6--|-7-7----7-7--7-|-(7)-5----7-5--7-|
|-8-8--8-(8)-8----|-8-8----8-8----|-----------------|
|-----------------|---------------|-----------------|


                   A chord diagramFF             A chord diagramF7F7
  A chord diagramE MajorE A chord diagramE MajorE A chord diagramE MajorE A chord diagramE MajorE A chord diagramE MajorE A chord diagramE MajorE Q    Q  Q  +A chord diagramE MajorE  A chord diagramE MajorE A chord diagramE MajorE A chord diagramE MajorE   +Q.   A chord diagramE MajorE Q  Q
|----------------|-----------------|---------------||
|-5---5---5---5--|-----------------|---------------||
|-4---4---4---4--|-5--5--(5)-5-7-8-|-(8)---8-8--7--||
|-7-5-7-5-7-5-5--|-7--7--(7)-7-7-7-|-(7)---7-7--7--||
|----------------|-8--8--(8)-8-8-8-|-(8)---8-8--8--||
|----------------|-----------------|---------------||


   1st - 3rd Verses
    $
    A chord diagramC majorC                         A chord diagramFF
    Gtr I (El. Gtr.)
     A chord diagramE MajorE  e  Q     A chord diagramE MajorE  A chord diagramE MajorE  A chord diagramE MajorE  A chord diagramE MajorE    A chord diagramE MajorE  e  Q     A chord diagramE MajorE  A chord diagramE MajorE  A chord diagramE MajorE  A chord diagramE MajorE
||-----12-------12----------|-------------------------|
||o----13-------13----------|----10-------10----------|
||--------------------10s=9-|----10-------10----------|
||--------------------------|--------------------8s=7-|
||o-------------------------|-------------------------|
||--------------------------|-------------------------|
|
|   Gtr II (El. Gtr.)
|    A chord diagramE MajorE  A chord diagramE MajorE  q     A chord diagramE MajorE  A chord diagramE MajorE  A chord diagramE MajorE  A chord diagramE MajorE    A chord diagramE MajorE  A chord diagramE MajorE  q     A chord diagramE MajorE  A chord diagramE MajorE  A chord diagramE MajorE  A chord diagramE MajorE
||---------8-----8--8-------|--------1-----1--1-------|
||o--------8-----8--8-10--8-|--------1-----1--1--3--1-|
||---------9-----9--9-10--9-|--------2-----2--2--3--2-|
||-----10-------------------|-----3-------------------|
||o-------------------------|-------------------------|
||--------------------------|-------------------------|
|
|   Gtr III (El. Gtr.)
|    A chord diagramE MajorE  A chord diagramE MajorE  A chord diagramE MajorE  A chord diagramE MajorE  A chord diagramE MajorE  A chord diagramE MajorE  A chord diagramE MajorE  A chord diagramE MajorE    A chord diagramE MajorE  A chord diagramE MajorE  A chord diagramE MajorE  A chord diagramE MajorE  A chord diagramE MajorE  A chord diagramE MajorE  A chord diagramE MajorE  A chord diagramE MajorE
||--------------------------|-------------------------|
||o-------------------------|-------------------------|
||--------------------------|-------------------------|
||--------------------------|-10-10-12-10-10-10-12-10-|
||o-10-10-12-10-10-10-12-10-|--8--8--8--8--8--8--8--8-|
||---8--8--8--8--8--8--8--8-|-------------------------|


  A chord diagramC majorC                         A chord diagramFF
   A chord diagramE MajorE  e  Q     A chord diagramE MajorE  A chord diagramE MajorE  A chord diagramE MajorE  A chord diagramE MajorE    A chord diagramE MajorE  e  Q     A chord diagramE MajorE  A chord diagramE MajorE  A chord diagramE MajorE  A chord diagramE MajorE
|----12-------12----------|--------------------------|
|----13-------13----------|----10-------10-----------|
|-------------------10s=9-|----10-------10-----------|
|-------------------------|--------------------8s=7--|
|-------------------------|--------------------------|
|-------------------------|--------------------------|
|
|  A chord diagramE MajorE  A chord diagramE MajorE  q     A chord diagramE MajorE  A chord diagramE MajorE  A chord diagramE MajorE  A chord diagramE MajorE    A chord diagramE MajorE  A chord diagramE MajorE  q     A chord diagramE MajorE  A chord diagramE MajorE  A chord diagramE MajorE  A chord diagramE MajorE
|--------8-----8--8-------|--------1-----1--1--------|
|--------8-----8--8-10--8-|--------1-----1--1--3--1--|
|--------9-----9--9-10--9-|--------2-----2--2--3--2--|
|----10-------------------|-----3--------------------|
|-------------------------|--------------------------|
|-------------------------|--------------------------|
|
|  A chord diagramE MajorE  A chord diagramE MajorE  A chord diagramE MajorE  A chord diagramE MajorE  A chord diagramE MajorE  A chord diagramE MajorE  A chord diagramE MajorE  A chord diagramE MajorE    A chord diagramE MajorE  A chord diagramE MajorE  A chord diagramE MajorE  A chord diagramE MajorE  A chord diagramE MajorE  A chord diagramE MajorE  A chord diagramE MajorE  A chord diagramE MajorE
|-------------------------|--------------------------|
|-------------------------|--------------------------|
|-------------------------|--------------------------|
|-------------------------|-10-10-12-10-10-10-12-10--|
|-10-10-12-10-10-10-12-10-|--8--8--8--8--8--8--8--8--|
|--8--8--8--8--8--8--8--8-|--------------------------|


  A chord diagramC majorC                         A chord diagramFF
   A chord diagramE MajorE  e  Q     A chord diagramE MajorE  A chord diagramE MajorE  A chord diagramE MajorE  A chord diagramE MajorE    A chord diagramE MajorE  e  Q     A chord diagramE MajorE  A chord diagramE MajorE  A chord diagramE MajorE  A chord diagramE MajorE
|----12-------12----------|-------------------------|
|----13-------13----------|----10-------10----------|
|-------------------10s=9-|----10-------10----------|
|-------------------------|--------------------8s=7-|
|-------------------------|-------------------------|
|-------------------------|-------------------------|
|
|  A chord diagramE MajorE  A chord diagramE MajorE  q     A chord diagramE MajorE  A chord diagramE MajorE  A chord diagramE MajorE  A chord diagramE MajorE    A chord diagramE MajorE  A chord diagramE MajorE  q     A chord diagramE MajorE  A chord diagramE MajorE  A chord diagramE MajorE  A chord diagramE MajorE
|--------8-----8--8-------|--------1-----1--1-------|
|--------8-----8--8-10--8-|--------1-----1--1--3--1-|
|--------9-----9--9-10--9-|--------2-----2--2--3--2-|
|----10-------------------|-----3-------------------|
|-------------------------|-------------------------|
|-------------------------|-------------------------|
|
|  A chord diagramE MajorE  A chord diagramE MajorE  A chord diagramE MajorE  A chord diagramE MajorE  A chord diagramE MajorE  A chord diagramE MajorE  A chord diagramE MajorE  A chord diagramE MajorE    A chord diagramE MajorE  A chord diagramE MajorE  A chord diagramE MajorE  A chord diagramE MajorE  A chord diagramE MajorE  A chord diagramE MajorE  A chord diagramE MajorE  A chord diagramE MajorE
|-------------------------|-------------------------|
|-------------------------|-------------------------|
|-------------------------|-------------------------|
|-------------------------|-10-10-12-10-10-10-12-10-|
|-10-10-12-10-10-10-12-10-|--8--8--8--8--8--8--8--8-|
|--8--8--8--8--8--8--8--8-|-------------------------|


  A chord diagramC majorC                         A chord diagramFF
   Q     A chord diagramE MajorE  A chord diagramE MajorE  A chord diagramE MajorE  A chord diagramE MajorE  Q       Q     A chord diagramE MajorE  A chord diagramE MajorE  A chord diagramE MajorE  A chord diagramE MajorE  A chord diagramE MajorE  A chord diagramE MajorE
|--------8-----8--8-------|-----------------1--------||
|--------8-----8--8-------|--3-----1--------1--------||
|-------------------------|--3-----2--1h=2-------/9s=||
|-------------------------|--------------------------||
|-------------------------|--------------------------||
|-------------------------|--------------------------||
|
|  Q     Q     A chord diagramE MajorE  Q     A chord diagramE MajorE    A chord diagramE MajorE  A chord diagramE MajorE  A chord diagramE MajorE  A chord diagramE MajorE  A chord diagramE MajorE  A chord diagramE MajorE  Q
|--------3-----4--3-------|--1--1-----------1--------||
|--------1-----3--1-------|--1--1--3--------1--------||
|--------3-----4--3-------|--2--2--3--1h=2-----------||
|-------------------------|--------------------------||
|-------------------------|--------------------------||
|-------------------------|--------------------------||
|
|  A chord diagramE MajorE  A chord diagramE MajorE  A chord diagramE MajorE  A chord diagramE MajorE  A chord diagramE MajorE  A chord diagramE MajorE  A chord diagramE MajorE  A chord diagramE MajorE    A chord diagramE MajorE  A chord diagramE MajorE  A chord diagramE MajorE  A chord diagramE MajorE  A chord diagramE MajorE  A chord diagramE MajorE  A chord diagramE MajorE  A chord diagramE MajorE
|-------------------------|--------------------------||
|-------------------------|--------------------------||
|-------------------------|--------------------------||
|-------------------------|-10-10-12-10-10-10-12-10--||
|-10-10-12-10-10-10-12-10-|--8--8--8--8--8--8--8--8--||
|--8--8--8--8--8--8--8--8-|--------------------------||


 Chorus
  A chord diagramBb majorBb
   A chord diagramE MajorE  A chord diagramE MajorE  A chord diagramE MajorE  A chord diagramE MajorE  A chord diagramE MajorE  A chord diagramE MajorE  A chord diagramE MajorE  A chord diagramE MajorE   A chord diagramE MajorE A chord diagramE MajorE  A chord diagramE MajorE A chord diagramE MajorE A chord diagramE MajorE A chord diagramE MajorE  A chord diagramE MajorE A chord diagramE MajorE
|----10-----------9-------|---8--------7------|
|-------------------------|-------------------|
|-10--------8s=9--------7s|=8------6s7------4s|
|-------------------------|-------------------|
|-------------------------|-------------------|
|-------------------------|-------------------|
|
|  A chord diagramE MajorE  A chord diagramE MajorE  A chord diagramE MajorE  A chord diagramE MajorE  A chord diagramE MajorE  A chord diagramE MajorE  A chord diagramE MajorE  A chord diagramE MajorE   A chord diagramE MajorE A chord diagramE MajorE  A chord diagramE MajorE A chord diagramE MajorE A chord diagramE MajorE A chord diagramE MajorE  A chord diagramE MajorE A chord diagramE MajorE
|-10-10-10-10--9--9--9--9-|-8-8--8-8-6-6--6-x-|
|-11-11-11-11-10-10-10-10-|-9-9--9-9-6-6--6-x-|
|-------------------------|-------------------|
|-------------------------|-------------------|
|-------------------------|-------------------|
|-------------------------|-------------------|
|
|  A chord diagramE MajorE  A chord diagramE MajorE  A chord diagramE MajorE  A chord diagramE MajorE  A chord diagramE MajorE  A chord diagramE MajorE  A chord diagramE MajorE  A chord diagramE MajorE   A chord diagramE MajorE A chord diagramE MajorE  A chord diagramE MajorE A chord diagramE MajorE A chord diagramE MajorE A chord diagramE MajorE  A chord diagramE MajorE A chord diagramE MajorE
|-------------------------|-------------------|
|-------------------------|-------------------|
|-------------------------|-------------------|
|-------------------------|-------------------|
|--8--8-10--8--8--8-10--8-|-8-8-10-8-8-8-10-8-|
|--6--6--6--6--6--6--6--6-|-6-6--6-6-6-6--6-6-|


  A chord diagramFF
   A chord diagramE MajorE  A chord diagramE MajorE  A chord diagramE MajorE  A chord diagramE MajorE  A chord diagramE MajorE  A chord diagramE MajorE  A chord diagramE MajorE  A chord diagramE MajorE    A chord diagramE MajorE  A chord diagramE MajorE  A chord diagramE MajorE  A chord diagramE MajorE  A chord diagramE MajorE  A chord diagramE MajorE  A chord diagramE MajorE  A chord diagramE MajorE
|-----5--5--------5-------|--3-----------1--1-------|
|--------------------3--1-|--3-----------1--1--3--1-|
|--5--------4s=5-----3--1-|--------1h=2--------3--1-|
|-------------------------|-------------------------|
|-------------------------|-------------------------|
|-------------------------|-------------------------|
|
|  A chord diagramE MajorE  A chord diagramE MajorE  A chord diagramE MajorE  A chord diagramE MajorE  A chord diagramE MajorE  A chord diagramE MajorE  A chord diagramE MajorE  A chord diagramE MajorE    A chord diagramE MajorE  A chord diagramE MajorE  A chord diagramE MajorE  A chord diagramE MajorE  A chord diagramE MajorE  A chord diagramE MajorE  A chord diagramE MajorE  A chord diagramE MajorE
|--5--5--5--5--4--4--4--4-|--3--3--3--3--1--1--1--x-|
|--6--6--6--6--5--5--5--5-|--4--4--4--4--1--1--1--x-|
|-------------------------|-------------------------|
|-------------------------|-------------------------|
|-------------------------|-------------------------|
|-------------------------|-------------------------|
|
|  A chord diagramE MajorE  A chord diagramE MajorE  A chord diagramE MajorE  A chord diagramE MajorE  A chord diagramE MajorE  A chord diagramE MajorE  A chord diagramE MajorE  A chord diagramE MajorE    A chord diagramE MajorE  A chord diagramE MajorE  A chord diagramE MajorE  A chord diagramE MajorE  A chord diagramE MajorE  A chord diagramE MajorE  A chord diagramE MajorE  A chord diagramE MajorE
|-------------------------|-------------------------|
|-------------------------|-------------------------|
|-------------------------|-------------------------|
|-10-10-12-10-10-10-12-10-|-10-10-12-10-10-10-12-10-|
|--8--8--8--8--8--8--8--8-|--8--8--8--8--8--8--8--8-|
|-------------------------|-------------------------|


  A chord diagramC majorC
   A chord diagramE MajorE   A chord diagramE MajorE  q     A chord diagramE MajorE  A chord diagramE MajorE  A chord diagramE MajorE  A chord diagramE MajorE    Q.        A chord diagramE MajorE +Q      Q
|--------------------------|---------------------------|
|--------11----10s11-10--8-|-10---------8-(8)----------|
|----/12-12----11s12-10--8-|-10---------9-(9)----------|
|--------------------------|---------------------------|
|--------------------------|---------------------------|
|--------------------------|---------------------------|
|
|  A chord diagramE MajorE   A chord diagramE MajorE  q     A chord diagramE MajorE  A chord diagramE MajorE  A chord diagramE MajorE  A chord diagramE MajorE    A chord diagramE MajorE   A chord diagramE MajorE  A chord diagramE MajorE  A chord diagramE MajorE  A chord diagramE MajorE   Q     A chord diagramE MajorE
|---------8-----8--8-------|---------8---------8-------|
|---------8-----8--8-10----|---------8---------8-------|
|---------9-----9--9-10--8h|==9---9--9--8--9---9-------|
|-----10-------------------|---------------------------|
|--------------------------|---------------------------|
|--------------------------|---------------------------|
|
|  A chord diagramE MajorE   A chord diagramE MajorE  A chord diagramE MajorE  A chord diagramE MajorE  A chord diagramE MajorE  A chord diagramE MajorE  A chord diagramE MajorE  A chord diagramE MajorE    A chord diagramE MajorE   A chord diagramE MajorE  A chord diagramE MajorE  A chord diagramE MajorE  A chord diagramE MajorE   A chord diagramE MajorE  A chord diagramE MajorE  A chord diagramE MajorE
|--------------------------|---------------------------|
|--------------------------|---------------------------|
|--------------------------|---------------------------|
|--------------------------|---------------------------|
|-10--10-12-10-10-10-12-10-|-10--10-12-10-10--10-12-10-|
|--8---8--8--8--8--8--8--8-|--8---8--8--8--8---8--8--8-|


  A chord diagramBb majorBb
  A chord diagramE MajorE   A chord diagramE MajorE  q   A chord diagramE MajorE  A chord diagramE MajorE  A chord diagramE MajorE A chord diagramE MajorE   Q.      A chord diagramE MajorE +Q     Q
|----------------------|----------------------|
|--------9---8s=9--8-6-|-8-------6-(6)--------|
|---/10-10---9s10--8-6-|-8-------7-(7)--------|
|----------------------|----------------------|
|----------------------|----------------------|
|----------------------|----------------------|
|
| A chord diagramE MajorE   A chord diagramE MajorE  q   A chord diagramE MajorE  A chord diagramE MajorE  A chord diagramE MajorE A chord diagramE MajorE   A chord diagramE MajorE  A chord diagramE MajorE  A chord diagramE MajorE A chord diagramE MajorE  A chord diagramE MajorE  Q    A chord diagramE MajorE
|--------6---6--6------|-------6-------6------|
|--------6---6--6--8---|-------6-------6------|
|--------7---7--7--8-6h|=7--7--7-6--7--7------|
|-----8----------------|----------------------|
|----------------------|----------------------|
|----------------------|----------------------|
|
| A chord diagramE MajorE   A chord diagramE MajorE  A chord diagramE MajorE A chord diagramE MajorE A chord diagramE MajorE  A chord diagramE MajorE  A chord diagramE MajorE A chord diagramE MajorE   A chord diagramE MajorE  A chord diagramE MajorE  A chord diagramE MajorE A chord diagramE MajorE  A chord diagramE MajorE  A chord diagramE MajorE  A chord diagramE MajorE A chord diagramE MajorE
|----------------------|----------------------|
|----------------------|----------------------|
|----------------------|----------------------|
|----------------------|----------------------|
|-8---8-10-8-8--8-10-8-|-8--8-10-8--8--8-10-8-|
|-6---6--6-6-6--6--6-6-|-6--6--6-6--6--6--6-6-|


  A chord diagramC majorC
   A chord diagramE MajorE   A chord diagramE MajorE  q     A chord diagramE MajorE  A chord diagramE MajorE  A chord diagramE MajorE  A chord diagramE MajorE    Q.        A chord diagramE MajorE +Q      Q
|--------------------------|---------------------------|
|--------11----10s11-10--8-|-10---------8-(8)----------|
|----/12-12----11s12-10--8-|-10---------9-(9)----------|
|--------------------------|---------------------------|
|--------------------------|---------------------------|
|--------------------------|---------------------------|
|
|  A chord diagramE MajorE   A chord diagramE MajorE  q     A chord diagramE MajorE  A chord diagramE MajorE  A chord diagramE MajorE  A chord diagramE MajorE    A chord diagramE MajorE   A chord diagramE MajorE  A chord diagramE MajorE  A chord diagramE MajorE  A chord diagramE MajorE   Q     A chord diagramE MajorE
|---------8-----8--8-------|---------8---------8-------|
|---------8-----8--8-10----|---------8---------8-------|
|---------9-----9--9-10--8h|==9---9--9--8--9---9-------|
|-----10-------------------|---------------------------|
|--------------------------|---------------------------|
|--------------------------|---------------------------|
|
|  A chord diagramE MajorE   A chord diagramE MajorE  A chord diagramE MajorE  A chord diagramE MajorE  A chord diagramE MajorE  A chord diagramE MajorE  A chord diagramE MajorE  A chord diagramE MajorE    A chord diagramE MajorE   A chord diagramE MajorE  A chord diagramE MajorE  A chord diagramE MajorE  A chord diagramE MajorE   A chord diagramE MajorE  A chord diagramE MajorE  A chord diagramE MajorE
|--------------------------|---------------------------|
|--------------------------|---------------------------|
|--------------------------|---------------------------|
|--------------------------|---------------------------|
|-10--10-12-10-10-10-12-10-|-10--10-12-10-10--10-12-10-|
|--8---8--8--8--8--8--8--8-|--8---8--8--8--8---8--8--8-|


                            1.
                   To Coda
  A chord diagramFF
   A chord diagramE MajorE  e  Q     A chord diagramE MajorE  A chord diagramE MajorE  A chord diagramE MajorE  A chord diagramE MajorE     A chord diagramE MajorE  e  Q     A chord diagramE MajorE  A chord diagramE MajorE  A chord diagramE MajorE  A chord diagramE MajorE
|--------------------------|--------------------------||
|----10-------10-----------|----10-------10----------o||
|----10-------10-----------|----10-------10-----------||
|--------------------8s=7--|--------------------8s=7--||
|--------------------------|-------------------------o||
|--------------------------|--------------------------||
|
|  A chord diagramE MajorE  A chord diagramE MajorE  q     A chord diagramE MajorE  A chord diagramE MajorE  A chord diagramE MajorE  A chord diagramE MajorE     A chord diagramE MajorE  A chord diagramE MajorE  q     A chord diagramE MajorE  A chord diagramE MajorE  A chord diagramE MajorE  A chord diagramE MajorE
|--------1-----1--1--------|--------1-----1--1--------||
|--------1-----1--1--3--1--|--------1-----1--1--3--1-o||
|--------2-----2--2--3--2--|--------2-----2--2--3--2--||
|-----3--------------------|-----3--------------------||
|--------------------------|-------------------------o||
|--------------------------|--------------------------||
|
|  A chord diagramE MajorE  A chord diagramE MajorE  A chord diagramE MajorE  A chord diagramE MajorE  A chord diagramE MajorE  A chord diagramE MajorE  A chord diagramE MajorE  A chord diagramE MajorE     A chord diagramE MajorE  A chord diagramE MajorE  A chord diagramE MajorE  A chord diagramE MajorE  A chord diagramE MajorE  A chord diagramE MajorE  A chord diagramE MajorE  A chord diagramE MajorE
|--------------------------|--------------------------||
|--------------------------|-------------------------o||
|--------------------------|--------------------------||
|-10-10-12-10-10-10-12-10--|-10-10-12-10-10-10-12-10--||
|--8--8--8--8--8--8--8--8--|--8--8--8--8--8--8--8--8-o||
|--------------------------|--------------------------||


                            Guitar Solo
  2.
   A chord diagramE MajorE  e  Q     A chord diagramE MajorE  A chord diagramE MajorE  A chord diagramE MajorE  A chord diagramE MajorE      q     q     A chord diagramE MajorE  A chord diagramE MajorE  Q
|-------------------------||--------------------------|
|----10-------10----------||-/11----11----10-11-------|
|----10-------10----------||-/12----12----11-12-------|
|--------------------8s=7-||--------------------------|
|-------------------------||--------------------------|
|-------------------------||--------------------------|
|
|  A chord diagramE MajorE  A chord diagramE MajorE  q     A chord diagramE MajorE  A chord diagramE MajorE  A chord diagramE MajorE  A chord diagramE MajorE      A chord diagramE MajorE  A chord diagramE MajorE  q     A chord diagramE MajorE  A chord diagramE MajorE  A chord diagramE MajorE  A chord diagramE MajorE
|--------1-----1--1-------||---------8-----8--8-------|
|--------1-----1--1--3--1-||---------8-----8--8-10--8-|
|--------2-----2--2--3--2-||---------9-----9--9-10--9-|
|-----3-------------------||-----10-------------------|
|-------------------------||--------------------------|
|-------------------------||--------------------------|
|
|  A chord diagramE MajorE  A chord diagramE MajorE  A chord diagramE MajorE  A chord diagramE MajorE  A chord diagramE MajorE  A chord diagramE MajorE  A chord diagramE MajorE  A chord diagramE MajorE      A chord diagramE MajorE  A chord diagramE MajorE  A chord diagramE MajorE  A chord diagramE MajorE  A chord diagramE MajorE  A chord diagramE MajorE  A chord diagramE MajorE  A chord diagramE MajorE
|-------------------------||--------------------------|
|-------------------------||--------------------------|
|-------------------------||--------------------------|
|-10-10-12-10-10-10-12-10-||--------------------------|
|--8--8--8--8--8--8--8--8-||--10-10-12-10-10-10-12-10-|
|-------------------------||---8--8--8--8--8--8--8--8-|


   A chord diagramE MajorE  A chord diagramE MajorE  A chord diagramE MajorE  A chord diagramE MajorE  A chord diagramE MajorE  A chord diagramE MajorE  Q       q     q     A chord diagramE MajorE  A chord diagramE MajorE  Q       H            H
|-------------------------|-------------------------|--------------------------|
|-13s11----10-----8-------|-11----11----10-11-------|-13\----------------------|
|-14s12----10-----9-------|-12----12----11-12-------|-14\----------------------|
|-------------------------|-------------------------|--------------------------|
|-------------------------|-------------------------|--------------------------|
|-------------------------|-------------------------|--------------------------|
|
|  A chord diagramE MajorE  A chord diagramE MajorE  q     A chord diagramE MajorE  A chord diagramE MajorE  A chord diagramE MajorE  A chord diagramE MajorE    A chord diagramE MajorE  A chord diagramE MajorE  q     A chord diagramE MajorE  A chord diagramE MajorE  A chord diagramE MajorE  A chord diagramE MajorE    A chord diagramE MajorE   A chord diagramE MajorE  q     A chord diagramE MajorE  A chord diagramE MajorE  A chord diagramE MajorE  A chord diagramE MajorE
|--------1-----1--1-------|--------8-----8--8-------|---------1-----1--1-------|
|--------1-----1--1--3--1-|--------8-----8--8-10--8-|---------1-----1--1--3--1-|
|--------2-----2--2--3--2-|--------9-----9--9-10--9-|---------2-----2--2--3--2-|
|-----3-------------------|----10-------------------|------3-------------------|
|-------------------------|-------------------------|--------------------------|
|-------------------------|-------------------------|--------------------------|
|
|  A chord diagramE MajorE  A chord diagramE MajorE  A chord diagramE MajorE  A chord diagramE MajorE  A chord diagramE MajorE  A chord diagramE MajorE  A chord diagramE MajorE  A chord diagramE MajorE    A chord diagramE MajorE  A chord diagramE MajorE  A chord diagramE MajorE  A chord diagramE MajorE  A chord diagramE MajorE  A chord diagramE MajorE  A chord diagramE MajorE  A chord diagramE MajorE    A chord diagramE MajorE   A chord diagramE MajorE  A chord diagramE MajorE  A chord diagramE MajorE  A chord diagramE MajorE  A chord diagramE MajorE  A chord diagramE MajorE  A chord diagramE MajorE
|-------------------------|-------------------------|--------------------------|
|-------------------------|-------------------------|--------------------------|
|-------------------------|-------------------------|--------------------------|
|-10-10-12-10-10-10-12-10-|-------------------------|-10--10-12-10-10-10-12-10-|
|--8--8--8--8--8--8--8--8-|-10-10-12-10-10-10-12-10-|--8---8--8--8--8--8--8--8-|
|-------------------------|--8--8--8--8--8--8--8--8-|--------------------------|


   q     q     A chord diagramE MajorE  A chord diagramE MajorE  Q       Q     A chord diagramE MajorE  A chord diagramE MajorE  A chord diagramE MajorE  A chord diagramE MajorE  Q
|-------------------------|-------------------------|
|-11----11----10--8-------|-------13-11-10--8-------|
|-12----12----10--9-------|-------14-12-10--8-------|
|-------------------------|-------------------------|
|-------------------------|-------------------------|
|-------------------------|-------------------------|
|
|  A chord diagramE MajorE  A chord diagramE MajorE  q     A chord diagramE MajorE  A chord diagramE MajorE  A chord diagramE MajorE  A chord diagramE MajorE    A chord diagramE MajorE  A chord diagramE MajorE  q     A chord diagramE MajorE  A chord diagramE MajorE  A chord diagramE MajorE  A chord diagramE MajorE
|--------8-----8--8-------|--------1-----1--1-------|
|--------8-----8--8-10--8-|--------1-----1--1--3--1-|
|--------9-----9--9-10--9-|--------2-----2--2--3--2-|
|----10-------------------|-----3-------------------|
|-------------------------|-------------------------|
|-------------------------|-------------------------|
|
|  A chord diagramE MajorE  A chord diagramE MajorE  A chord diagramE MajorE  A chord diagramE MajorE  A chord diagramE MajorE  A chord diagramE MajorE  A chord diagramE MajorE  A chord diagramE MajorE    A chord diagramE MajorE  A chord diagramE MajorE  A chord diagramE MajorE  A chord diagramE MajorE  A chord diagramE MajorE  A chord diagramE MajorE  A chord diagramE MajorE  A chord diagramE MajorE
|-------------------------|-------------------------|
|-------------------------|-------------------------|
|-------------------------|-------------------------|
|-------------------------|-10-10-12-10-10-10-12-10-|
|-10-10-12-10-10-10-12-10-|--8--8--8--8--8--8--8--8-|
|--8--8--8--8--8--8--8--8-|-------------------------|


   q     q     A chord diagramE MajorE  A chord diagramE MajorE  Q        Q     Q     Q     A chord diagramE MajorE  A chord diagramE MajorE
|--------------------------|--------------------------|
|-11----11----10-11--------|-13-----------------------|
|-12----12----11-12--------|-14-----------------------|
|--------------------------|----------------------11--|
|--------------------------|--------------------------|
|--------------------------|--------------------------|
|
|  A chord diagramE MajorE  A chord diagramE MajorE  q     A chord diagramE MajorE  A chord diagramE MajorE  A chord diagramE MajorE  A chord diagramE MajorE     A chord diagramE MajorE  A chord diagramE MajorE  A chord diagramE MajorE  A chord diagramE MajorE  A chord diagramE MajorE  A chord diagramE MajorE  A chord diagramE MajorE  A chord diagramE MajorE
|--------8-----8--8--------|--1--1-----------1--------|
|--------8-----8--8-10--8\-|--1--1--3--------1--------|
|--------9-----9--9-10--9\-|--2--2--3--1h=2--------9s=|
|----10--------------------|--------------------------|
|--------------------------|--------------------------|
|--------------------------|--------------------------|
|
|  A chord diagramE MajorE  A chord diagramE MajorE  A chord diagramE MajorE  A chord diagramE MajorE  A chord diagramE MajorE  A chord diagramE MajorE  A chord diagramE MajorE  A chord diagramE MajorE     A chord diagramE MajorE  A chord diagramE MajorE  A chord diagramE MajorE  A chord diagramE MajorE  A chord diagramE MajorE  A chord diagramE MajorE  A chord diagramE MajorE  A chord diagramE MajorE
|--------------------------|--------------------------|
|--------------------------|--------------------------|
|--------------------------|--------------------------|
|--------------------------|-10-10-12-10-10-10-12-10--|
|-10-10-12-10-10-10-12-10--|--8--8--8--8--8--8--8--8--|
|--8--8--8--8--8--8--8--8--|--------------------------|


  A chord diagramBb majorBb
   A chord diagramE MajorE  Q     A chord diagramE MajorE  A chord diagramE MajorE Q     A chord diagramE MajorE    A chord diagramE MajorE      +A chord diagramE MajorE   A chord diagramE MajorE  A chord diagramE MajorE A chord diagramE MajorE A chord diagramE MajorE  A chord diagramE MajorE A chord diagramE MajorE
|----10----------9-------|----------------------------|
|------------------------|----------------------------|
|------------------------|-11pb13r(11)----------------|
|-12-------12-11------11-|-------------11-11-8-8----9h|
|------------------------|-----------------------10---|
|------------------------|----------------------------|
|
|  A chord diagramE MajorE  A chord diagramE MajorE  A chord diagramE MajorE  A chord diagramE MajorE  A chord diagramE MajorE A chord diagramE MajorE  A chord diagramE MajorE  A chord diagramE MajorE    A chord diagramE MajorE       A chord diagramE MajorE   A chord diagramE MajorE  A chord diagramE MajorE A chord diagramE MajorE A chord diagramE MajorE  A chord diagramE MajorE A chord diagramE MajorE
|----10----------9-------|----------8----------7------|
|------------------------|----------------------------|
|-10--------8s=9-------7s|==8--------------6s7------4s|
|------------------------|----------------------------|
|------------------------|----------------------------|
|------------------------|----------------------------|
|
|  A chord diagramE MajorE  A chord diagramE MajorE  A chord diagramE MajorE  A chord diagramE MajorE  A chord diagramE MajorE A chord diagramE MajorE  A chord diagramE MajorE  A chord diagramE MajorE    A chord diagramE MajorE       A chord diagramE MajorE   A chord diagramE MajorE  A chord diagramE MajorE A chord diagramE MajorE A chord diagramE MajorE  A chord diagramE MajorE A chord diagramE MajorE
|------------------------|----------------------------|
|------------------------|----------------------------|
|------------------------|----------------------------|
|------------------------|----------------------------|
|--8--8-10--8--8-8-10--8-|--8-------8--10--8-8-8-10-8-|
|--6--6--6--6--6-6--6--6-|--6-------6---6--6-6-6--6-6-|


  A chord diagramFF
   A chord diagramE MajorE  A chord diagramE MajorE  Q     A chord diagramE MajorE  A chord diagramE MajorE  Q       A chord diagramE MajorE  A chord diagramE MajorE  A chord diagramE MajorE  A chord diagramE MajorE  Q     Q
|-------------------------|-------------------------|
|----13-------13----------|----15-13----------------|
|----14-------14----------|----15-13-14-------------|
|-10----------------------|-------------15----------|
|-------------------------|-------------------------|
|-------------------------|-------------------------|
|
|  A chord diagramE MajorE  A chord diagramE MajorE  A chord diagramE MajorE  A chord diagramE MajorE  A chord diagramE MajorE  A chord diagramE MajorE  A chord diagramE MajorE  A chord diagramE MajorE    A chord diagramE MajorE  A chord diagramE MajorE  A chord diagramE MajorE  A chord diagramE MajorE  A chord diagramE MajorE  A chord diagramE MajorE  A chord diagramE MajorE  A chord diagramE MajorE
|-----5--5--------5-------|--3-----------1--1-------|
|--------------------3--1-|--3-----------1--1--3--1-|
|--5--------4s=5-----3--1-|--------1h=2--------3--1-|
|-------------------------|-------------------------|
|-------------------------|-------------------------|
|-------------------------|-------------------------|
|
|  A chord diagramE MajorE  A chord diagramE MajorE  A chord diagramE MajorE  A chord diagramE MajorE  A chord diagramE MajorE  A chord diagramE MajorE  A chord diagramE MajorE  A chord diagramE MajorE    A chord diagramE MajorE  A chord diagramE MajorE  A chord diagramE MajorE  A chord diagramE MajorE  A chord diagramE MajorE  A chord diagramE MajorE  A chord diagramE MajorE  A chord diagramE MajorE
|-------------------------|-------------------------|
|-------------------------|-------------------------|
|-------------------------|-------------------------|
|-10-10-12-10-10-10-12-10-|-10-10-12-10-10-10-12-10-|
|--8--8--8--8--8--8--8--8-|--8--8--8--8--8--8--8--8-|
|-------------------------|-------------------------|


   Q     A chord diagramE MajorE  A chord diagramE MajorE +A chord diagramE MajorE   Q     A chord diagramE MajorE    Q     A chord diagramE MajorE  A chord diagramE MajorE  A chord diagramE MajorE  A chord diagramE MajorE  A chord diagramE MajorE  A chord diagramE MajorE
|--------------------------|-------------------------|
|--------------------------|-------10----------------|
|--------8--9-(9)-10-----8-|--9----10--8--9--------6h|
|--------------------------|----------------10-------|
|--------------------------|-------------------------|
|--------------------------|-------------------------|
|
|  A chord diagramE MajorE  A chord diagramE MajorE  q     A chord diagramE MajorE   A chord diagramE MajorE  A chord diagramE MajorE  A chord diagramE MajorE    A chord diagramE MajorE  A chord diagramE MajorE  A chord diagramE MajorE  A chord diagramE MajorE  A chord diagramE MajorE  Q     A chord diagramE MajorE
|--------8-----8---8-------|--------8--------8-------|
|--------8-----8---8-10----|--------8--------8-------|
|--------9-----9---9-10--8h|==9--9--9--8--9--9-------|
|----10--------------------|-------------------------|
|--------------------------|-------------------------|
|--------------------------|-------------------------|
|
|  A chord diagramE MajorE  A chord diagramE MajorE  A chord diagramE MajorE  A chord diagramE MajorE  A chord diagramE MajorE   A chord diagramE MajorE  A chord diagramE MajorE  A chord diagramE MajorE    A chord diagramE MajorE  A chord diagramE MajorE  A chord diagramE MajorE  A chord diagramE MajorE  A chord diagramE MajorE  A chord diagramE MajorE  A chord diagramE MajorE  A chord diagramE MajorE
|--------------------------|-------------------------|
|--------------------------|-------------------------|
|--------------------------|-------------------------|
|--------------------------|-------------------------|
|-10-10-12-10-10--10-12-10-|-10-10-12-10-10-10-12-10-|
|--8--8--8--8--8---8--8--8-|--8--8--8--8--8--8--8--8-|


  Q    Q      A chord diagramE MajorE A chord diagramE MajorE  A chord diagramE MajorE A chord diagramE MajorE   A chord diagramE MajorE A chord diagramE MajorE  Q      A chord diagramE MajorE  A chord diagramE MajorE  A chord diagramE MajorE  A chord diagramE MajorE
|----------------------|---------------------------|
|------8b10---8--------|------8b10-----------------|
|-7----8b10---8----7---|-6-7--8b10---8-------11b13-|
|--------------------8-|---------------11--8-------|
|----------------------|---------------------------|
|----------------------|---------------------------|
|
| A chord diagramE MajorE A chord diagramE MajorE  q      A chord diagramE MajorE A chord diagramE MajorE  A chord diagramE MajorE A chord diagramE MajorE   A chord diagramE MajorE A chord diagramE MajorE  A chord diagramE MajorE    A chord diagramE MajorE A chord diagramE MajorE  Q     A chord diagramE MajorE
|------6------6-6------|------6---------6----------|
|------6------6-6--8---|------6---------6----------|
|------7------7-7--8-6h|=7-7--7----6-7--7----------|
|---8------------------|---------------------------|
|----------------------|---------------------------|
|----------------------|---------------------------|
|
| A chord diagramE MajorE A chord diagramE MajorE  A chord diagramE MajorE    A chord diagramE MajorE A chord diagramE MajorE A chord diagramE MajorE  A chord diagramE MajorE A chord diagramE MajorE   A chord diagramE MajorE A chord diagramE MajorE  A chord diagramE MajorE    A chord diagramE MajorE A chord diagramE MajorE  A chord diagramE MajorE  A chord diagramE MajorE  A chord diagramE MajorE
|----------------------|---------------------------|
|----------------------|---------------------------|
|----------------------|---------------------------|
|----------------------|---------------------------|
|-8-8-10----8-8-8-10-8-|-8-8-10----8-8--8-10--8----|
|-6-6--6----6-6-6--6-6-|-6-6--6----6-6--6--6--6----|


  A chord diagramC majorC
   +A chord diagramE MajorE   A chord diagramE MajorE  A chord diagramE MajorE  A chord diagramE MajorE  A chord diagramE MajorE  A chord diagramE MajorE  A chord diagramE MajorE  A chord diagramE MajorE    A chord diagramE MajorE  A chord diagramE MajorE  A chord diagramE MajorE  A chord diagramE MajorE  A chord diagramE MajorE  Q.
|---------------------------|--------------------------|
|----------8----10----------|-10-----8-----------------|
|-(11)-----8--9-10--8--9----|-10-----8--8--9-----------|
|------10----------------10-|----------------10--------|
|---------------------------|--------------------------|
|---------------------------|--------------------------|
|
|   A chord diagramE MajorE   A chord diagramE MajorE  q     A chord diagramE MajorE  A chord diagramE MajorE  A chord diagramE MajorE  A chord diagramE MajorE    A chord diagramE MajorE  A chord diagramE MajorE  A chord diagramE MajorE  A chord diagramE MajorE  A chord diagramE MajorE  Q      A chord diagramE MajorE
|----------8-----8--8-------|--------8--------8--------|
|----------8-----8--8-10----|--------8--------8--------|
|----------9-----9--9-10--8h|==9--9--9--8--9--9--------|
|------10-------------------|--------------------------|
|---------------------------|--------------------------|
|---------------------------|--------------------------|
|
|   A chord diagramE MajorE   A chord diagramE MajorE  A chord diagramE MajorE  A chord diagramE MajorE  A chord diagramE MajorE  A chord diagramE MajorE  A chord diagramE MajorE  A chord diagramE MajorE    A chord diagramE MajorE  A chord diagramE MajorE  A chord diagramE MajorE  A chord diagramE MajorE  A chord diagramE MajorE  A chord diagramE MajorE   A chord diagramE MajorE  A chord diagramE MajorE
|---------------------------|--------------------------|
|---------------------------|--------------------------|
|---------------------------|--------------------------|
|---------------------------|--------------------------|
|--10--10-12-10-10-10-12-10-|-10-10-12-10-10-10--12-10-|
|---8---8--8--8--8--8--8--8-|--8--8--8--8--8--8---8--8-|


                                          D.S. al Coda
  A chord diagramFF
   A chord diagramE MajorE  Q.        Q     Q       A chord diagramE MajorE  Q.        Q     Q
|--------------------------|---------------------------||
|----10--------10-----8----|----10--------10-----8-----||
|----10--------10-----9----|----10--------10-----9-----||
|----10--------10----10----|----10--------10----10-----||
|--------------------------|---------------------------||
|--------------------------|---------------------------||
|
|  A chord diagramE MajorE  A chord diagramE MajorE   q     A chord diagramE MajorE  A chord diagramE MajorE  A chord diagramE MajorE  A chord diagramE MajorE    A chord diagramE MajorE  A chord diagramE MajorE   q     A chord diagramE MajorE  A chord diagramE MajorE  A chord diagramE MajorE  A chord diagramE MajorE
|---------1-----1--1-------|---------1-----1--1--------||
|---------1-----1--1--3--1-|---------1-----1--1--3--1--||
|---------2-----2--2--3--2-|---------2-----2--2--3--2--||
|-----3--------------------|-----3---------------------||
|--------------------------|---------------------------||
|--------------------------|---------------------------||
|
|  A chord diagramE MajorE  A chord diagramE MajorE   A chord diagramE MajorE  A chord diagramE MajorE  A chord diagramE MajorE  A chord diagramE MajorE  A chord diagramE MajorE  A chord diagramE MajorE    A chord diagramE MajorE  A chord diagramE MajorE   A chord diagramE MajorE  A chord diagramE MajorE  A chord diagramE MajorE  A chord diagramE MajorE  A chord diagramE MajorE  A chord diagramE MajorE
|--------------------------|---------------------------||
|--------------------------|---------------------------||
|--------------------------|---------------------------||
|-10-10--12-10-10-10-12-10-|-10-10--12-10-10-10-12-10--||
|--8--8---8--8--8--8--8--8-|--8--8---8--8--8--8--8--8--||
|--------------------------|---------------------------||


                            Interlude
  &
  A chord diagramFF                          A chord diagramC majorC
   A chord diagramE MajorE  e  Q     A chord diagramE MajorE  A chord diagramE MajorE  A chord diagramE MajorE  A chord diagramE MajorE     A chord diagramE MajorE  Q.        Q     Q
|-------------------------||-----8---------8----------|
|----10-------10----------||-----8---------8----10----|
|----10-------10----------||-----9---------9----10----|
|--------------------8s=7-||--------------------10----|
|-------------------------||--------------------------|
|-------------------------||--------------------------|
|
|  A chord diagramE MajorE  A chord diagramE MajorE  q     A chord diagramE MajorE  A chord diagramE MajorE  A chord diagramE MajorE  A chord diagramE MajorE     A chord diagramE MajorE  A chord diagramE MajorE   q     A chord diagramE MajorE  A chord diagramE MajorE  A chord diagramE MajorE  A chord diagramE MajorE
|--------1-----1--1-------||---------8-----8--8-------|
|--------1-----1--1--3--1-||---------8-----8--8-10--8-|
|--------2-----2--2--3--2-||---------9-----9--9-10--9-|
|-----3-------------------||----10--------------------|
|-------------------------||--------------------------|
|-------------------------||--------------------------|
|
|  A chord diagramE MajorE  A chord diagramE MajorE  A chord diagramE MajorE  A chord diagramE MajorE  A chord diagramE MajorE  A chord diagramE MajorE  A chord diagramE MajorE  A chord diagramE MajorE     A chord diagramE MajorE  A chord diagramE MajorE   A chord diagramE MajorE  A chord diagramE MajorE  A chord diagramE MajorE  A chord diagramE MajorE  A chord diagramE MajorE  A chord diagramE MajorE
|-------------------------||--------------------------|
|-------------------------||--------------------------|
|-------------------------||--------------------------|
|-10-10-12-10-10-10-12-10-||--------------------------|
|--8--8--8--8--8--8--8--8-||-10-10--12-10-10-10-12-10-|
|-------------------------||--8--8---8--8--8--8--8--8-|


  A chord diagramFF                          A chord diagramC majorC                          A chord diagramFF
   A chord diagramE MajorE  Q.        Q     Q       A chord diagramE MajorE  Q.        Q     Q       A chord diagramE MajorE  Q.        Q     Q
|--------------------------|-----8---------8----------|--------------------------|
|----10--------10-----8----|-----8---------8----10----|----10--------10-----8----|
|----10--------10-----9----|-----9---------9----10----|----10--------10-----9----|
|----10--------10----10----|--------------------10----|----10--------10----10----|
|--------------------------|--------------------------|--------------------------|
|--------------------------|--------------------------|--------------------------|
|
|  A chord diagramE MajorE  A chord diagramE MajorE   q     A chord diagramE MajorE  A chord diagramE MajorE  A chord diagramE MajorE  A chord diagramE MajorE    A chord diagramE MajorE  A chord diagramE MajorE   q     A chord diagramE MajorE  A chord diagramE MajorE  A chord diagramE MajorE  A chord diagramE MajorE    A chord diagramE MajorE  A chord diagramE MajorE   q     A chord diagramE MajorE  A chord diagramE MajorE  A chord diagramE MajorE  A chord diagramE MajorE
|---------1-----1--1-------|---------8-----8--8-------|---------1-----1--1-------|
|---------1-----1--1--3--1-|---------8-----8--8-10--8-|---------1-----1--1--3--1-|
|---------2-----2--2--3--2-|---------9-----9--9-10--9-|---------2-----2--2--3--2-|
|-----3--------------------|----10--------------------|-----3--------------------|
|--------------------------|--------------------------|--------------------------|
|--------------------------|--------------------------|--------------------------|
|
|  A chord diagramE MajorE  A chord diagramE MajorE   A chord diagramE MajorE  A chord diagramE MajorE  A chord diagramE MajorE  A chord diagramE MajorE  A chord diagramE MajorE  A chord diagramE MajorE    A chord diagramE MajorE  A chord diagramE MajorE   A chord diagramE MajorE  A chord diagramE MajorE  A chord diagramE MajorE  A chord diagramE MajorE  A chord diagramE MajorE  A chord diagramE MajorE    A chord diagramE MajorE  A chord diagramE MajorE   A chord diagramE MajorE  A chord diagramE MajorE  A chord diagramE MajorE  A chord diagramE MajorE  A chord diagramE MajorE  A chord diagramE MajorE
|--------------------------|--------------------------|--------------------------|
|--------------------------|--------------------------|--------------------------|
|--------------------------|--------------------------|--------------------------|
|-10-10--12-10-10-10-12-10-|--------------------------|-10-10--12-10-10-10-12-10-|
|--8--8---8--8--8--8--8--8-|-10-10--12-10-10-10-12-10-|--8--8---8--8--8--8--8--8-|
|--------------------------|--8--8---8--8--8--8--8--8-|--------------------------|


  A chord diagramC majorC                          A chord diagramFF
   A chord diagramE MajorE  Q.        Q     Q       A chord diagramE MajorE  Q.        Q     Q
|-----8---------8----------|--------------------------|
|-----8---------8----10----|----10--------10-----8----|
|-----9---------9----10----|----10--------10-----9----|
|--------------------10----|----10--------10----10----|
|--------------------------|--------------------------|
|--------------------------|--------------------------|
|
|  A chord diagramE MajorE  A chord diagramE MajorE   q     A chord diagramE MajorE  A chord diagramE MajorE  A chord diagramE MajorE  A chord diagramE MajorE    A chord diagramE MajorE  A chord diagramE MajorE   q     A chord diagramE MajorE  A chord diagramE MajorE  A chord diagramE MajorE  A chord diagramE MajorE
|---------8-----8--8-------|---------1-----1--1-------|
|---------8-----8--8-10--8-|---------1-----1--1--3--1-|
|---------9-----9--9-10--9-|---------2-----2--2--3--2-|
|----10--------------------|-----3--------------------|
|--------------------------|--------------------------|
|--------------------------|--------------------------|
|
|  A chord diagramE MajorE  A chord diagramE MajorE   A chord diagramE MajorE  A chord diagramE MajorE  A chord diagramE MajorE  A chord diagramE MajorE  A chord diagramE MajorE  A chord diagramE MajorE    A chord diagramE MajorE  A chord diagramE MajorE   A chord diagramE MajorE  A chord diagramE MajorE  A chord diagramE MajorE  A chord diagramE MajorE  A chord diagramE MajorE  A chord diagramE MajorE
|--------------------------|--------------------------|
|--------------------------|--------------------------|
|--------------------------|--------------------------|
|--------------------------|-10-10--12-10-10-10-12-10-|
|-10-10--12-10-10-10-12-10-|--8--8---8--8--8--8--8--8-|
|--8--8---8--8--8--8--8--8-|--------------------------|


  A chord diagramC majorC                           A chord diagramFF
   A chord diagramE MajorE  Q.        Q     Q        A chord diagramE MajorE  Q.        A chord diagramE MajorE  A chord diagramE MajorE  Q
|-----8---------8-----------|----13---------------------|
|-----8---------8----10-----|----13--------13-11-10-----|
|-----9---------9----10-----|----14--------14-12-10-----|
|--------------------10-----|---------------------------|
|---------------------------|---------------------------|
|---------------------------|---------------------------|
|
|  A chord diagramE MajorE  A chord diagramE MajorE   q     A chord diagramE MajorE  A chord diagramE MajorE  A chord diagramE MajorE  A chord diagramE MajorE     A chord diagramE MajorE  A chord diagramE MajorE   A chord diagramE MajorE  A chord diagramE MajorE  A chord diagramE MajorE  A chord diagramE MajorE  A chord diagramE MajorE  A chord diagramE MajorE
|---------8-----8--8--------|--1--1------------1--------|
|---------8-----8--8-10--8\-|--1--1---3--------1--------|
|---------9-----9--9-10--9\-|--2--2---3--1h=2--------9s=|
|----10---------------------|---------------------------|
|---------------------------|---------------------------|
|---------------------------|---------------------------|
|
|  A chord diagramE MajorE  A chord diagramE MajorE   A chord diagramE MajorE  A chord diagramE MajorE  A chord diagramE MajorE  A chord diagramE MajorE  A chord diagramE MajorE  A chord diagramE MajorE     A chord diagramE MajorE  A chord diagramE MajorE   A chord diagramE MajorE  A chord diagramE MajorE  A chord diagramE MajorE  A chord diagramE MajorE  A chord diagramE MajorE  A chord diagramE MajorE
|---------------------------|---------------------------|
|---------------------------|---------------------------|
|---------------------------|---------------------------|
|---------------------------|-10-10--12-10-10-10-12-10--|
|-10-10--12-10-10-10-12-10--|--8--8---8--8--8--8--8--8--|
|--8--8---8--8--8--8--8--8--|---------------------------|


  A chord diagramBb majorBb
    A chord diagramE MajorE   Q.       A chord diagramE MajorE Q    A chord diagramE MajorE   A chord diagramE MajorE Q.      Q    Q
|------10-------10-9------|---6-------6--------|
|-------------------------|---6-------6----8---|
|-/10-(10)------10-9----6s|=7--------------8---|
|-------------------------|--------------------|
|-------------------------|--------------------|
|-------------------------|--------------------|
|
|   A chord diagramE MajorE   A chord diagramE MajorE   A chord diagramE MajorE A chord diagramE MajorE  A chord diagramE MajorE A chord diagramE MajorE  A chord diagramE MajorE A chord diagramE MajorE   A chord diagramE MajorE A chord diagramE MajorE   A chord diagramE MajorE A chord diagramE MajorE A chord diagramE MajorE A chord diagramE MajorE  A chord diagramE MajorE A chord diagramE MajorE
|------10----------9------|---8---------7------|
|-------------------------|--------------------|
|--10---------8s=9------7s|=8-------6s7------4s|
|-------------------------|--------------------|
|-------------------------|--------------------|
|-------------------------|--------------------|
|
|   A chord diagramE MajorE   A chord diagramE MajorE   A chord diagramE MajorE A chord diagramE MajorE  A chord diagramE MajorE A chord diagramE MajorE  A chord diagramE MajorE A chord diagramE MajorE   A chord diagramE MajorE A chord diagramE MajorE   A chord diagramE MajorE A chord diagramE MajorE A chord diagramE MajorE A chord diagramE MajorE  A chord diagramE MajorE A chord diagramE MajorE
|-------------------------|--------------------|
|-------------------------|--------------------|
|-------------------------|--------------------|
|-------------------------|--------------------|
|---8---8--10-8--8-8-10-8-|-8-8--10-8-8-8-10-8-|
|---6---6---6-6--6-6--6-6-|-6-6---6-6-6-6--6-6-|


  A chord diagramFF
   A chord diagramE MajorE  Q.        Q     Q       A chord diagramE MajorE  A chord diagramE MajorE  Q     Q     A chord diagramE MajorE  A chord diagramE MajorE
|--------------------------|-----8--------8----------||
|----10--------10----------|----10-------10----------||
|----10--------10-----7----|--------------------7----||
|----10--------10-----8----|--------------------8----||
|--------------------------|-------------------------||
|--------------------------|-------------------------||
|
|  A chord diagramE MajorE  A chord diagramE MajorE   A chord diagramE MajorE  A chord diagramE MajorE  A chord diagramE MajorE  A chord diagramE MajorE  A chord diagramE MajorE  A chord diagramE MajorE    A chord diagramE MajorE  A chord diagramE MajorE  A chord diagramE MajorE  A chord diagramE MajorE  A chord diagramE MajorE  A chord diagramE MajorE  A chord diagramE MajorE  A chord diagramE MajorE
|-----5---5--------5-------|--3-----------1--1-------||
|---------------------3--1-|--3-----------1--1--3--1-||
|--5---------4s=5-----3--1-|--------1h=2--------3--1-||
|--------------------------|-------------------------||
|--------------------------|-------------------------||
|--------------------------|-------------------------||
|
|  A chord diagramE MajorE  A chord diagramE MajorE   A chord diagramE MajorE  A chord diagramE MajorE  A chord diagramE MajorE  A chord diagramE MajorE  A chord diagramE MajorE  A chord diagramE MajorE    A chord diagramE MajorE  A chord diagramE MajorE  A chord diagramE MajorE  A chord diagramE MajorE  A chord diagramE MajorE  A chord diagramE MajorE  A chord diagramE MajorE  A chord diagramE MajorE
|--------------------------|-------------------------||
|--------------------------|-------------------------||
|--------------------------|-------------------------||
|-10-10--12-10-10-10-12-10-|-10-10-12-10-10-10-12-10-||
|--8--8---8--8--8--8--8--8-|--8--8--8--8--8--8--8--8-||
|--------------------------|-------------------------||


 Outro
  A chord diagramC majorC
   A chord diagramE MajorE  Q     A chord diagramE MajorE  Q     A chord diagramE MajorE  A chord diagramE MajorE    Q     A chord diagramE MajorE  A chord diagramE MajorE  Q     Q
|-----8--------8----------|-------------------------|
|-----8--------8----------|-------------------------|
|-------------------10--8h|==9-----8h=9-------------|
|-------------------------|-------------10----------|
|-------------------------|-------------------------|
|-------------------------|-------------------------|
|
|  A chord diagramE MajorE  A chord diagramE MajorE  q     A chord diagramE MajorE  A chord diagramE MajorE  A chord diagramE MajorE  A chord diagramE MajorE    A chord diagramE MajorE  A chord diagramE MajorE  A chord diagramE MajorE  A chord diagramE MajorE  A chord diagramE MajorE  Q     A chord diagramE MajorE
|--------8-----8--8-------|--------8--------8-------|
|--------8-----8--8-10----|--------8--------8-------|
|--------9-----9--9-10--8h|==9--9--9--8--9--9-------|
|----10-------------------|-------------------------|
|-------------------------|-------------------------|
|-------------------------|-------------------------|
|
|  A chord diagramE MajorE  A chord diagramE MajorE  A chord diagramE MajorE  A chord diagramE MajorE  A chord diagramE MajorE  A chord diagramE MajorE  A chord diagramE MajorE  A chord diagramE MajorE    A chord diagramE MajorE  A chord diagramE MajorE  A chord diagramE MajorE  A chord diagramE MajorE  A chord diagramE MajorE  A chord diagramE MajorE  A chord diagramE MajorE  A chord diagramE MajorE
|-------------------------|-------------------------|
|-------------------------|-------------------------|
|-------------------------|-------------------------|
|-------------------------|-------------------------|
|-10-10-12-10-10-10-12-10-|-10-10-12-10-10-10-12-10-|
|--8--8--8--8--8--8--8--8-|--8--8--8--8--8--8--8--8-|


  A chord diagramBb majorBb
  A chord diagramE MajorE  Q.         A chord diagramE MajorE  Q.        A chord diagramE MajorE  Q.         A chord diagramE MajorE  Q.
|---15b16------15----------|---15b16------15----------|
|---15b16------15-14-------|---15b16------15-14-------|
|--------------------------|--------------------------|
|--------------------------|--------------------------|
|--------------------------|--------------------------|
|--------------------------|--------------------------|
|
| A chord diagramE MajorE  A chord diagramE MajorE     q    A chord diagramE MajorE  A chord diagramE MajorE   A chord diagramE MajorE A chord diagramE MajorE   A chord diagramE MajorE  A chord diagramE MajorE     A chord diagramE MajorE A chord diagramE MajorE  A chord diagramE MajorE  Q     A chord diagramE MajorE
|----------6----6--6-------|----------6-------6-------|
|----------6----6--6---8---|----------6-------6-------|
|----------7----7--7---8-6h|=7--7-----7-6--7--7-------|
|----8---------------------|--------------------------|
|--------------------------|--------------------------|
|--------------------------|--------------------------|
|
| A chord diagramE MajorE  A chord diagramE MajorE     A chord diagramE MajorE A chord diagramE MajorE  A chord diagramE MajorE  A chord diagramE MajorE   A chord diagramE MajorE A chord diagramE MajorE   A chord diagramE MajorE  A chord diagramE MajorE     A chord diagramE MajorE A chord diagramE MajorE  A chord diagramE MajorE  A chord diagramE MajorE   A chord diagramE MajorE A chord diagramE MajorE
|--------------------------|--------------------------|
|--------------------------|--------------------------|
|--------------------------|--------------------------|
|--------------------------|--------------------------|
|-8--8----10-8--8--8--10-8-|-8--8----10-8--8--8--10-8-|
|-6--6-----6-6--6--6---6-6-|-6--6-----6-6--6--6---6-6-|


  A chord diagramC majorC
   A chord diagramE MajorE  Q.          Q     Q       A chord diagramE MajorE  Q.          Q     Q
|----15b16-------15----13----|----15b16-------15----------|
|----15b16-------15----13----|----15b16-------15----------|
|----------------------------|----------------------------|
|----------------------------|----------------------------|
|----------------------------|----------------------------|
|----------------------------|----------------------------|
|
|  A chord diagramE MajorE  A chord diagramE MajorE     q     A chord diagramE MajorE  A chord diagramE MajorE  A chord diagramE MajorE  A chord diagramE MajorE    A chord diagramE MajorE  A chord diagramE MajorE     A chord diagramE MajorE  A chord diagramE MajorE  A chord diagramE MajorE  Q     A chord diagramE MajorE
|-----------8-----8--8-------|-----------8--------8-------|
|-----------8-----8--8-10----|-----------8--------8-------|
|-----------9-----9--9-10--8h|==9--9-----9--8--9--9-------|
|----10----------------------|----------------------------|
|----------------------------|----------------------------|
|----------------------------|----------------------------|
|
|  A chord diagramE MajorE  A chord diagramE MajorE     A chord diagramE MajorE  A chord diagramE MajorE  A chord diagramE MajorE  A chord diagramE MajorE  A chord diagramE MajorE  A chord diagramE MajorE    A chord diagramE MajorE  A chord diagramE MajorE     A chord diagramE MajorE  A chord diagramE MajorE  A chord diagramE MajorE  A chord diagramE MajorE  A chord diagramE MajorE  A chord diagramE MajorE
|----------------------------|----------------------------|
|----------------------------|----------------------------|
|----------------------------|----------------------------|
|----------------------------|----------------------------|
|-10-10----12-10-10-10-12-10-|-10-10----12-10-10-10-12-10-|
|--8--8-----8--8--8--8--8--8-|--8--8-----8--8--8--8--8--8-|


  A chord diagramFF
  A chord diagramE MajorE A chord diagramE MajorE Q   Q   Q     A chord diagramE MajorE A chord diagramE MajorE Q   a  H       +W
|---4s5---5---3---|-1----------1-----|-(1)----*|
|---3s4---4---1---|-1-1h3------1-----|-(1)----*|
|---4s5---5---3---|-2-2h3---1h=2-----|-(2)----*|
|-----------------|------------------|--------*|
|-----------------|------------------|--------*|
|-----------------|------------------|--------*|
|
| A chord diagramE MajorE A chord diagramE MajorE A chord diagramE MajorE A chord diagramE MajorE A chord diagramE MajorE A chord diagramE MajorE A chord diagramE MajorE A chord diagramE MajorE   A chord diagramE MajorE A chord diagramE MajorE A chord diagramE MajorE A chord diagramE MajorE   +H       +W
|-----------------|------------------|--------*|
|---1-4-3-1-------|------------------|--------*|
|-----------3-1h2-|------------------|--------*|
|-----------------|-3-0---3---(3)----|-(3)----*|
|-----------------|-----3------------|--------*|
|-----------------|------------------|--------*|
|
| A chord diagramE MajorE A chord diagramE MajorE A chord diagramE MajorE A chord diagramE MajorE A chord diagramE MajorE A chord diagramE MajorE A chord diagramE MajorE A chord diagramE MajorE   A chord diagramE MajorE A chord diagramE MajorE A chord diagramE MajorE A chord diagramE MajorE   +H       +W
|-----------------|------------------|--------*|
|---1-4-3-1-------|------------------|--------*|
|-----------3-1h2-|------------------|--------*|
|-----------------|-3---2-3---(3)----|-(3)----*|
|-----------------|------------------|--------*|
|-----------------|------------------|--------*|


Duration 🏷Legend
---------------
W - whole; H - half; Q - quarter; A chord diagramE MajorE - 8th; S - 16th; T - 32nd; X - 64th; a - acciaccatura
+ - note tied to previous; . - note dotted; .. - note double dotted
Uncapitalized letters represent notes that are staccato (1/2 duration)
Irregular groupings are notated above the duration line
Duration letters will always appear directly above the note/fret number it represents the
duration for.  Duration letters with no fret number below them represent rests.  Multi-
bar rests are notated in the form Wxn, where n is the number of bars to rest for.  Low
melody durations appear below the staff

Tablature 🏷Legend
----------------
 h   - hammer-on
 p   - pull-off
 b   - bend
 pb  - pre-bend
 r   - bend release (if no number after the r, then release immediately)
 /\  - slide into or out of (from/to "nowhere")
 s   - legato slide
 S   - shift slide
  - natural harmonic
[n]  - artificial harmonic
n(n) - tapped harmonic
 ~   - vibrato
 tr  - trill
 T   - tap
 TP  - trem. picking
 PM  - palm muting
\n/  - tremolo bar dip; n = amount to dip
 \n  - tremolo bar down
 n/  - tremolo bar up
/n\  - tremolo bar inverted dip
 =   - hold bend; also acts as connecting device for hammers/pulls
 <>  - volume swell (louder/softer)
 x   - on rhythm slash represents muted slash
 o   - on rhythm slash represents single note slash

Misc 🏷Legend
-----------
 |  - bar
||  - double bar
||o - repeat start
o|| - repeat end
*|  - double bar (ending)
 :  - bar (freetime)
 $  - Segno
 &  - Coda
Tempo markers -  = BPM(8/16=s8/s16), where s8 = swing 8ths, s16 = swing 16ths
ⓘ Guitar tab for 'Flight 505' by The Rolling Stones, a rock band formed in 1962 from London, England. The Rolling Stones is known for their energetic rock/pop music.

Almost there ...

Sign in to get your own page with links to favourite songs and more. You are just one click away...

Login with Facebook Login with Google