Log in

One click and you are in

Login with Facebook Login with Google

Why sign up and log in

Guitar Tabs Explorer
The Rolling Stones tabs for Carol

Guitar tabs

Chorus

e-------5-5-5-5-5-----------------------5-5-5-5-5-5-5-5-5---------------|
B---5-7-5-5-5-5-5---5-7-5-5-5-5-5---5-7-5-5-5-5-5-5-5-5-5-7(8)~~~~------|
G-6---------------6-----5-5-5-5-5-6-----------------------7(8)~~~~------|
D-----------------------------------------------------------------------|
A-----------------------------------------------------------------------|
E-----------------------------------------------------------------------|
e-----------------------------------------------------------------------|
B-----------------------------------------------------------------------|
G-----------------------------------------------------------------------|
D-7-7-9-7-7-7-9-7-7-7-9-7-7-7-9-7---------------------------------------|
A-5-5-5-5-5-5-5-5-5-5-5-5-5-5-5-5--7-7-9-7-7-7-9-7-7-7-9-7-7-7-9-7------|
E----------------------------------5-5-5-5-5-5-5-5-5-5-5-5-5-5-5-5------|

e----------------------------------------5------5---------5-----5\------|
B----------------------------------------5-7.---5---7-----5-----5\------|
G------------------------------------------7.-------7-5h6---5h6---------|
D-9-9-11-9-12-9-11-9-9-9-11-9-9-9-11-9----------------------------------|
A-7-7-7--7-7--7-7--7-7-7-7--7-7-7-7--7----------------------------------|
E-----------------------------------------------------------------------|


Verse

e---------------------------------------------5-----5-----5\------------|
B-------------------------------------5-------------------5\------------|
G--------------------------------/6-----7-5h6---5h6---5h6---------------|
D-----------------------------------------------------------------------|
A-7-7-9-7-7-7-9-7-7-7-9-7-7-7-------------------------------------------|
E-5-5-5-5-5-5-5-5-5-5-5-5-5-5-------------------------------------------|

e-----------------------------------------------------------------------|
B--------------------------------5------5-5------5------5---------------|
G--------------------------------7(9)-----7(9)---7(9)---7(9)---7-5------|
D------------------------------------------------------------------5-5~-|
A-7-7-9-7-7-7-9-7-7-7-9-7-7-7-------------------------------------------|
E-5-5-5-5-5-5-5-5-5-5-5-5-5-5-------------------------------------------|


e-----------------------------------------------------------------------|
B-----------------------------------------------------------------------|
G---5-7-----------------------------------------------------------------|
D-7---------------------------------------------------------------------|
A-----------------------------------------------------------------------|
E-----------------------------------------------------------------------|


e-----------------------------------------------------------------------|
B----------------------------------7(8).---7(8).---7(8)(7)~-------------|
G----------------------------------7(8).---7(8).---7(8)(7)~-------------|
D-7-7-9-7-10-7-9-7-7-7-9-7-7-7------------------------------------------|
A-5-5-5-5-5--5-5-5-5-5-5-5-5-5------------------------------------------|
E-----------------------------------------------------------------------|


e-----------------------------------------------------------------------|
B-5-7(8)(7)~---5-7(8)(7)~-----------------------------------------------|
G-5-7(8)(7)~---5-7(8)(7)~-----------------------------------------------|
D-----------------------------------------------------------------------|
A-----------------------------------------------------------------------|
E-----------------------------------------------------------------------|


e---------------------------------------5--------------------5----------|
B---------------------------------------5-7(8)(7)------------5----------|
G-------------------------------7(9).-----7(8)(7)-5---5-7(9)---5--------|
D---------------------------------------------------7------------7~-----|
A-7-7-9-7-7-7-9-7-7-7-9-7-7-7-------------------------------------------|
E-5-5-5-5-5-5-5-5-5-5-5-5-5-5-------------------------------------------|


e-----------------------------------------------------------------------|
B-----------------------------------------------------------------------|
G---5.------------------------------------------------------------------|
D-7---------------------------------------------------------------------|
A-----------------------------------------------------------------------|
E-----------------------------------------------------------------------|


e-----------------------------------------------------------------------|
B-----------------------------------7(8).---7(8).---7(8)(7)~------------|
G-----------------------------------7(8).---7(8).---7(8)(7)~------------|
D-9-9-11-9-12-9-11-9-9-9-11-9-9-9---------------------------------------|
A-7-7-7--7-7--7-7--7-7-7-7--7-7-7---------------------------------------|
E-----------------------------------------------------------------------|


e-----------------------------------------------------------------------|
B-5-7(8)(7)~---5-7(8)(7)~-----------------------------------------------|
G-5-7(8)(7)~---5-7(8)(7)~-----------------------------------------------|
D-----------------------------------------------------------------------|
A-----------------------------------------------------------------------|
E-----------------------------------------------------------------------|


e-----------------------------------------------------------------------|
B-------------------------------5------5-5------5-5------5--------------|
G-------------------------------7(9)-----7(9)-----7(9)---7(9)-----------|
D-----------------------------------------------------------------------|
A-7-7-9-7-7-7-9-7-7-7-9-7-7-7-------------------------------------------|
E-5-5-5-5-5-5-5-5-5-5-5-5-5-5-------------------------------------------|


e-----------------------------------------------------------------------|
B-----------------------------------------------------------------------|
G-(9)(7)-5--------------------------------------------------------------|
D----------7-7----------------------------------------------------------|
A-----------------------------------------------------------------------|
E-----------------------------------------------------------------------|


Chorus 2

e-------5-5-5-5-5-----------------------5-5-5-5-5-5-5-5-5---------------|
B---5-7-5-5-5-5-5---5-7-5-5-5-5-5---5-7-5-5-5-5-5-5-5-5-5-7(8)~~~~------|
G-6---------------6-----5-5-5-5-5-6-----------------------7(8)~~~~------|
D-----------------------------------------------------------------------|
A-----------------------------------------------------------------------|
E-----------------------------------------------------------------------|


e-----------------------------------5------5------------5------5---------|
B-----------------------------------5-7.---5---7(8).----5-7.---5---7-----|(8).
G-------------------------------------7.-------7(8).------7.-------7-----|(8).
D-7-7-9-7-7-7-9-7-7-7-9-7-7-7-9-7----------------------------------------|
A-5-5-5-5-5-5-5-5-5-5-5-5-5-5-5-5----------------------------------------|
E------------------------------------------------------------------------|


e----------------------------------------5-------5-----5-----5\---------|
B----------------------------------------5-7-5---5-5---5-----5\---------|
G------------------------------------------7-5h6---5h6---5h6------------|
D-9-9-11-9-12-9-11-9-9-9-11-9-9-9-11-9----------------------------------|
A-7-7-7--7-7--7-7--7-7-7-7--7-7-7-7--7----------------------------------|
E-----------------------------------------------------------------------|


Solo

e-------5-5-5-5-5-----------------------5-5-5-5-5-5-5-5-5---------------|
B---5-7-5-5-5-5-5---5-7-5-5-5-5-5---5-7-5-5-5-5-5-5-5-5-5-7(8)~~~~------|
G-6---------------6-----5-5-5-5-5-6-----------------------7(8)~~~~------|
D-----------------------------------------------------------------------|
A-----------------------------------------------------------------------|
E-----------------------------------------------------------------------|


e-----------------------------5-7'--5---5---5---------------------------|
B-7(8)(7)-5-x----5.---5-7-5-7-5-------7-5-8-5-7'-5----------------------|
G-7(8)(7)-5-x----5.---5-7-5-7---------7-------7'-5---5-7-5.-------------|
D--------------------------------------------------7-5-7-5.-------------|
A--------------------------------------------------7--------------------|
E-----------------------------------------------------------------------|


e-5-5-5-------5.---9-\-7-\-5-------5--------------------5-----5---------|
B-5-5-5-7-5-7-5.---9-\-7-\-5---8---5---7(8)---7---------5-----5---------|
G--------------------------------------7(8)---7-----5h6---5h6-----------|
D-----------------------------------------------------------------------|
A-----------------------------------------------------------------------|
E-----------------------------------------------------------------------|


e---------5---------5---------5---------5-------------5-------5---5-----|
B---------5-7(8)(7)-5-7(8)(7)-5-7(8)(7)-5-----7(8)(7)-5-----7-5---5-----|
G-7(8)(7)---7(8)(7)---7(8)(7)---7(8)(7)-------7(8)(7)-------7-----------|
D-----------------------------------------------------------------------|
A-----------------------------------------------------------------------|
E-----------------------------------------------------------------------|


e---------5-------5---5---------5-------5-5-5-5-5-7'---5-7'---5-7-5-7-5-|
B-7(8)(7)-5-------5---5-7(8)(7)-5-------5-5-5-5-5-7'---5-7'---5-7-5-7-5-|
G-7(8)(7)-------7'------7(8)(7)-------7'--------------------------------|
D-----------------------------------------------------------------------|
A-----------------------------------------------------------------------|
E-----------------------------------------------------------------------|


e-7'---5-7-5-7.---5-----------------------------------------------------|
B-7'---5-7-5-7.---5-7(8)(7)-5-7(8)(7)---5-7(8)(7)---5-7-5------5--------|
G-------------------7(8)(7)-5-7(8)(7)---5-7(8)(7)---5-7-5-7(9)----------|
D-----------------------------------------------------------------------|
A-----------------------------------------------------------------------|
E-----------------------------------------------------------------------|


e---------5---------5---------5---------5---------5------5------5------5-|
B---------5---------5---------5---------5---------5------5------5------5-|
G-7(9).-----7(9).-----7(9).-----7(9).-----7(9).-----7(9)---7(9)---7(9)---|
D------------------------------------------------------------------------|
A------------------------------------------------------------------------|
E------------------------------------------------------------------------|


e------5------5---------------------------------------------------------|
B------5------5-7(8)(7)-5-----------------------------------------------|
G-7(9)---7(9)---7(8)(7)-5-----------------------------------------------|
D-------------------------7~------7--5----------------------------------|
A---------------------------------------7-\-----------------------------|
E-----------------------------------------------------------------------|


verse 2

e-----------------------------/5.---5---5-------5-----5-----5\----------|
B-----------------------------/5.---5---5-7-5---5-----5-----5\----------|
G-----------------------------------------7-5h6---5h6---5h6-------------|
D-2-2-4-2-2-2-4-2-2-2-4-2-2---------------------------------------------|
A-0-0-0-0-0-0-0-0-0-0-0-0-0---------------------------------------------|
E-----------------------------------------------------------------------|


e-----------------------------------------------------------------------|
B-----------------------------7(8)---------7(8)(7)-7(8)(7)-----7(8)(7)\-|
G-----------------------------7(8)---------7(8)(7)-7(8)(7)-----7(8)(7)\-|
D-2-2-4-2-2-2-4-2-2-2-4-2-2---------------------------------------------|
A-0-0-0-0-0-0-0-0-0-0-0-0-0---------------------------------------------|
E-----------------------------------------------------------------------|


e-----------------------------------------------------------------------|
B-----------------------------------------------------------------------|
G-----------------------------------------------------------------------|
D-7-7-9-7-7-7-9-7-7-7-9-7-7-7-9-7--7-7-----7-7-9-7-7-7-----7-7-9-7------|
A-5-5-5-5-5-5-5-5-5-5-5-5-5-5-5-5--5-5-8-9-5-5-5-5-5-5-8-9-5-5-5-5------|
E-----------------------------------------------------------------------|


e-----------------------------/5-5---5-------5.-------------------------|
B-----------------------------/5-5---5-7-----5.---5-7(8)(7)-5-----------|
G--------------------------------------7-5h6------5-7(8)(7)-5-------5---|
D-------------------------------------------------------------7---7-5-x-|
A-7-7-9-7-7-7-9-7-7-7-9-7-7-----------------------------------7---7---x-|
E-5-5-5-5-5-5-5-5-5-5-5-5-5---------------------------------------------|


e-----------------------------------------------------------------------|
B----------------------------------7(8).---7(8).---7(8)(7)~-------------|
G----------------------------------7(8).---7(8).---7(8)(7)~-------------|
D-9-9-11-9-9-9-11-9-9-9-11-9-9-9----------------------------------------|
A-7-7-7--7-7-7-7--7-7-7-7--7-7-7----------------------------------------|
E-----------------------------------------------------------------------|


e-----------------------------------------------------------------------|
B-5-7(8)(7)~---5-7(8)(7)~-----------------------------------------------|
G-5-7(8)(7)~---5-7(8)(7)~-----------------------------------------------|
D-----------------------------------------------------------------------|
A-----------------------------------------------------------------------|
E-----------------------------------------------------------------------|


e-----------------------------------------------------------------------|
B-----------------------------------------------------------------------|
G-------------------------------7(9)---7(9).-7(9).-7(9).-7(9).-7(9).----|
D-----------------------------------------------------------------------|
A-7-7-9-7-7-7-9-7-7-7-9-7-7-7-------------------------------------------|
E-5-5-5-5-5-5-5-5-5-5-5-5-5-5-------------------------------------------|


e-----------------------------------------------------------------------|
B-----------------------------------------------------------------------|
G-7(9).-7(9).-(9)(7)-5--------------------------------------------------|
D----------------------7~-----------------------------------------------|
A-----------------------------------------------------------------------|
E-----------------------------------------------------------------------|


Chorus 3

e-------5-5-5-5-5-----------------------5-5-5-5-5-5-5-5-5---------------|
B---5-7-5-5-5-5-5---5-7-5-5-5-5-5---5-7-5-5-5-5-5-5-5-5-5-7(8)~~~~------|
G-6---------------6-----5-5-5-5-5-6-----------------------7(8)~~~~------|
D-----------------------------------------------------------------------|
A-----------------------------------------------------------------------|
E-----------------------------------------------------------------------|


e-----------------------------------5------5------------5------5---------|
B-----------------------------------5-7.---5---7(8).----5-7.---5---7-----|(8).
G-------------------------------------7.-------7(8).------7.-------7-----|(8).
D-7-7-9-7-7-7-9-7-7-7-9-7-7-7-9-7----------------------------------------|
A-5-5-5-5-5-5-5-5-5-5-5-5-5-5-5-5----------------------------------------|
E------------------------------------------------------------------------|


e----------------------------------------5-------5-----5-----5\---------|
B----------------------------------------5-7-5---5-5---5-----5\---------|
G------------------------------------------7-5h6---5h6---5h6------------|
D-9-9-11-9-12-9-11-9-9-9-11-9-9-9-11-9----------------------------------|
A-7-7-7--7-7--7-7--7-7-7-7--7-7-7-7--7----------------------------------|
E-----------------------------------------------------------------------|


THE END

e-------5-5-5-5-5-----------------------5-5-7-5-5-7-5-7-5-7'-5-7-5-7-5--|
B---5-7-5-5-5-5-5---5-7-5-5-5-5-5---5-7-5-5-5-5-5-7-5-7-5-5--5-7-5-7-5--|
G-6---------------6-----5-5-5-5-5-6-------------------------------------|
D-----------------------------------------------------------------------|
A-----------------------------------------------------------------------|
E-----------------------------------------------------------------------|


e-7(8)---(7)-5-7-5-7.---7(8)---(7)-5---5---5---------5.-----5.----------|
B-7(8)---(7)-5-7-5-7.---7(8)---(7)-5-7-5-7-5-7.------5.-----5.----------|
G------------------------------------7---7---7.------------------5h6.---|
D-----------------------------------------------------------------------|
A-----------------------------------------------------------------------|
E-----------------------------------------------------------------------|


e-5.-----5.--------------------5---------5---------5---------5----------|
B-5.-----5.----------5---------5---------5---------5---------5----------|
G-----------5h6.-----5-7(9).-----7(9).-----7(9).-----7(9).-----7(9).----|
D-----------------------------------------------------------------------|
A-----------------------------------------------------------------------|
E-----------------------------------------------------------------------|


e-5-5------5-5------5-5---5---------------------------------------------|
B-5-5-7.---5-5-7.---5-5-7-5---------------------------------------------|
G-----7.-------7.-------7-----------------------------------------------|
D-----------------------------------------------------------------------|
A-----------------------------------------------------------------------|
E-----------------------------------------------------------------------|

Other versions of Carol

CarolChords
Carol (Ver. 2)Chords

Almost there ...

Sign in to get your own page with links to favourite songs and more. You are just one click away...

Login with Facebook Login with Google