Log in

One click and you are in

Login with Facebook Login with Google

Why sign up and log in

Guitar Tabs Explorer
The Rolling Stones tabs for Anybody seen my baby

Guitar tabs

Album: Bridges to babylon.
Submitted by: Konig

Standard Tuning
b = bend string up
\ = slide down
/ = slide up
~ = vibrato


    A chord diagramA minorAm   A chord diagramE minorEm   A chord diagramC majorC   A chord diagramD MajorD
e---0----0----0---2----
B---1----0----1---3----
G---2----0----0---2----
D---2----2----2---0----
A---0----2----3---0----
E---0----0----0---0----



Verse 1
bass riff
G------------------         ---------
D------------------         ---------
A---0-3-5-7-5-3-0--  (3x)   ---------  the whole riff repits 3 times
E------------------         --2-0----



Pre-chorus:   A chord diagramA minorAm  A chord diagramE minorEm (4x)

Chorus:  A chord diagramC majorC  A chord diagramD MajorD  A chord diagramE minorEm  (4x)


Play the pre-chorus and the chorus with arpeggio


Riff 1 (before verse)
e-------------
B---5/6-5-----
G---5---------
D-------------
A-------------
E-------------


Verse 2: It's the same that verse 1


solo (3:48)
e---7-10-12-14-15-14-14b-12~~~~-----12\7-10-12-10---5-3-5-7-0----
B----------------------------------------------------------------
G----------------------------------------------------------------
D----------------------------------------------------------------
A----------------------------------------------------------------
E----------------------------------------------------------------


e-5-3-5-7-5-3-0---3-5-3-2---3-2-3---7-5-10-12-0-5-7-0---4/5-7-0--
B----------------------------------------------------------------
G----------------------------------------------------------------
D----------------------------------------------------------------
A----------------------------------------------------------------
E----------------------------------------------------------------



bass riff

Pre-chorus

Chorus

Riff 1

Verse 2

Pre-chorus

Chorus

Riff 1

Chorus

Chorus - so
ⓘ Guitar tab for 'Anybody Seen My Baby' by The Rolling Stones, a rock band formed in 1962 from London, England. The Rolling Stones is known for their energetic rock/pop music.

Other versions of Anybody Seen My Baby

Anybody seen my baby (Ver. 2)Tabs

Almost there ...

Sign in to get your own page with links to favourite songs and more. You are just one click away...

Login with Facebook Login with Google