Log in

One click and you are in

Login with Facebook Login with Google

Why sign up and log in

Guitar Tabs Explorer
The Rolling Stones bass tabs for 2000 man

Bass tabs

Tuning: Standard (E A D G)

(Intro)  (x4)
G||--------||---------------------------------------|-----------------------------------------|
D||--------||---------------------------------------|-7---7--7--7---7--7--7---7--7--7---7--x--|
A||--------||-5---5--5--5---5--5--5---5--5--5---5---|-----------------------------------------|
E||--------||---------------------------------------|-----------------------------------------|
                                (Verse)
G|---------------------------------------|---------------------|---------------------------------------|
D|---------------------------------------|-7----6----4---2-----|-7---7--7--7---7--7--7---7--7--6---4---|
A|-5---5--5--5---5--5--5---5--5--5---5---|---------------------|---------------------------------------|
E|---------------------------------------|---------------------|---------------------------------------|


G|---------------------------------------|-----------------------------------------|
D|-------------------7---7--7--7---7--7--|-7---7--7--7---7--7--7---7--7--6--x--4---|
A|-7---7--7--7---7-----------------------|-----------------------------------------|
E|---------------------------------------|-----------------------------------------|


G|-----------------------------------------|-----------------------------------------|
D|-----------9-------7---7--7--7--x--7--7--|-----------------------------------------|
A|-7---7--7------7-------------------------|-5---5--5--5---5--5--5--5--5---5---5--5--|
E|-----------------------------------------|-----------------------------------------|


G|---------------------------------------|-------------------------------------------|
D|-7---7--7--7--7--7---7---7--7--7---7---|-------------------------------------------|
A|---------------------------------------|-5--5--5--5--5---5--5--5---5--5--5---5--5--|
E|---------------------------------------|-------------------------------------------|


G|---------------------|---------------------------------------|--------------------------9------------|
D|-7----6----4---2-----|-7---7--7--7---7--7--7---7--7--7---7---|--------9----------7---7------7--7--7--|
A|---------------------|---------------------------------------|-7---7------7--7-----------------------|
E|---------------------|---------------------------------------|---------------------------------------|

G|-------------------------------------|--------------------------9----------|
D|-7---7--7---7--7---7---7--7---7--7---|--------9----------7---7------7--7---|
A|-------------------------------------|-7---7------7--7---------------------|
E|-------------------------------------|-------------------------------------|

G|---------------------------------------|
D|---------------------------------------|
A|-5---5--5--5---5--5--5---5---5--5--5---|
E|---------------------------------------|


G|-------------------------------------|---------------------------------------|---------------------|
D|-7---7--7--7---7---7---7--7--7---7---|---------------------------------------|-7----6----4---2-----|
A|-------------------------------------|-5---5--5--5---5---5---5--5--5--5--5---|---------------------|
E|-------------------------------------|---------------------------------------|---------------------|

(Chorus)
G|---------------------|------------------------|------------------------|------------------------------|
D|---------------------|------------------------|------------------------|------------------------------|
A|-----------5---------|-5-------5---5----------|-----------5------------|-7-------5--------------------|
E|------5--------5-----|-----5------------5-----|------5--------5----5---|-----5-------5----5---5---5---|


G|------------------------|------------------------------|------------------------|
D|------------------------|------------------------------|------------------------|
A|-----------5------------|-7-------5---5----------------|-----------5------------|
E|------5--------5----5---|-----5------------5---5---5---|-5----5--------5----5---|

             (Verse)
G|-----------------------|------------------------|------------------------------|
D|-----------------------|------------------------|------------------------------|
A|-7-------5-------------|-5----5----5---5----5---|-5---5---5---5----5---5-------|
E|-----5-------5---------|------------------------|--------------------------5---|


G|---------------------------------|---------------------------------|------------------5-----|
D|---------------------11--9-------|---------------------------------|-7---5-------7----------|
A|---------------------------------|-----10--9-------10--9-----------|---------7--------------|
E|-7---7---7----7--7-----------7---|-7-----------7-----------7---7---|------------------------|


G|------------------------------|------------------------------|------------------------------|
D|-7---5-------7----7---7---7---|----------------------5-------|------------------------------|
A|---------7--------------------|-7---5-------7----7-------7---|-7---5-------7----------------|
E|------------------------------|---------7--------------------|---------7--------7---7---7---|

                                (Chorus)
G|------------------------------|------------------------------|------------------------|
D|----------------------5-------|------------------------------|------------------------|
A|-7---5-------7----7-------7---|-7---5-------7----7---7-------|-----------5------------|
E|---------7--------------------|---------7----------------5---|-5----5--------5----5---|


G|---------------------------|------------------------|------------------------------|
D|---------------------------|------------------------|------------------------------|
A|-7-------5---5-------------|-----------5------------|-7-------5--------------------|
E|-----5------------5----5---|-5----5--------5----5---|-----5-------5----5---5---5---|


G|------------------------|---------------------------|------------------------|-----------------------|
D|------------------------|---------------------------|------------------------|-----------------------|
A|-----------5------------|-7-------5---5-------------|-----------5------------|-7-------5-------------|
E|-5----5--------5----5---|-----5------------5----5---|-5----5--------5----5---|-----5-------5---------|

                  (x3)
G||---------------------------------||------------------------|---------------------------|
D||---------------------------------||------------------------|---------------------------|
A||-7---7---7---7---7---7---7---7---||-----------5------------|-7-------5---5-------------|
E||---------------------------------||-5----5--------5----5---|-----5------------5----5---|


G|------------------------|------------------------------|------------------------|
D|------------------------|------------------------------|------------------------|
A|-----------5------------|-7-------5--------------------|-----------5------------|
E|-5----5--------5----5---|-----5-------5----5---5---5---|-5----5--------5----5---|

                                       (Outro)
G|---------------------------|------------------------|-----------------------|-------------------------|
D|---------------------------|------------------------|-----------------------|-------------------------|
A|-7-------5---5-------------|-----------5------------|-7-------5-------------|-5--5--5--5--5--5--5--5--|
E|-----5------------5----5---|-5----5--------5----5---|-----5-------5---------|-------------------------|


G|---------------------------------|-------------------------------------|-------------------|
D|---------------------------------|-------------------------------------|-------------------|
A|---------------------------------|-5---5--5---5--5---5---5--5---5--5---|-------------------|
E|-5---5---5---5---5---5---5---5---|-------------------------------------|-5---5--5---5--5---|

                    (x2)
G||-------------------------------------||-------------------------------------|
D||-------------------------------------||-------------------------------------|
A||-7---7--7---7--7---7---7--7---7--7---||-------------------------------------|
E||-------------------------------------||-5---5--5---5--5---5---5--5---5--5---|


G|-------------------------------------|-------------------------------------|--------|
D|-------------------------------------|-------------------------------------|--------|
A|-5---5--5---5--5---5---5--5---5--5---|-7---7--7---7--7---7---7--7---7--7---|--------|
E|-------------------------------------|-------------------------------------|-5------|

🏷Legend
x - dead note

Almost there ...

Sign in to get your own page with links to favourite songs and more. You are just one click away...

Login with Facebook Login with Google