Log in

One click and you are in

Login with Facebook Login with Google

Why sign up and log in

Guitar Tabs Explorer
Rolling Blackouts Coastal Fever bass tabs for Time in common

Time In Common bass tab by Rolling Blackouts Coastal Fever

Rolling Blackouts Coastal Fever bass tabs for Time in common

Bass tabs

Tuning: Standard (E A D G)


Intro:
                                 X2
G|----------------------------------------------------------------|
D|6-6-6-6-6-------------------------------------------------8-8-8-|
A|----------4-4-4/8-8-8-8-8-----------------4-4-4/8-8-8-8-8-------|
E|--------------------------6-6-6-4-4-4-4-4-----------------------|

Verse 1:
Before the start, time at separate tables...
G|----------------------------------------------------------------|
D|6-6-6-6-6-----------------8-8-8-6-6-6-6-6-----------------------|
A|----------4-4-4/8-8-8-8-8-----------------4-4-4/8-8-8-8-8-------|
E|----------------------------------------------------------6-6-6-|

G|----------------------------------------------------------------|
D|--------------------------8-8-8-6-6-6-6-6-----------------------|
A|----------4-4-4/8-8-8-8-8-----------------4-4-4/8-8-8-8-8-------|
E|4-4-4-4-4-------------------------------------------------6-6-6-|

G|----------------------------------------------------------------|
D|--------------------------8-8-8-6-6-6-6-6-----------------8-8-8-|
A|----------4-4-4/8-8-8-8-8-----------------4-4-4/8-8-8-8-8-------|
E|4-4-4-4-4-------------------------------------------------------|

G|-------------------------------------------------|
D|6-6---6-6---6-6---x-6--6-6-6---6-6---6-6---x-6--6|
A|-------------------------------------------------|
E|-------------------------------------------------|


Interlude:

G|-------------------------------------------------|
D|6-6----------------------------------------x-8~\-|
A|------4-4---8-8----------------4-4---8-8---------|
E|------------------x-6~\-4-4----------------------|

G|-------------------------------------------------|
D|6-6----------------------------------------------|
A|------4-4---8-8----------------4-4---8-8---------|
E|------------------x-6~\-4-4----------------x-8~\-|


Chorus:
Oh yeah, do you ever think about it ...
G|----------------------------------------------------------------|
D|----------------------------------------------------------------|
A|------------------------------------8-8-8-8-8-8-8-8-8-8-8-8-8-8-|
E|4-4-4-4-4-4-4-4-4-4-4-4-4-4-4-4/6~~-----------------------------|


G|----------------------------------------------------------------|
D|----------------------------------------------------------8-8-8-|
A|------------------------------------8-8-8-8-8-8-8-8-8-8-8-------|
E|4-4-4-4-4-4-4-4-4-4-4-4-4-4-4-4/6~~-----------------------------|


Verse 2:
Beside the water, your legs were next to mine...
G|----------------------------------------------------------------|
D|6-6-6-6-6-------------------------------------------------8-8-8-|
A|----------4-4-4/8-8-8-8-8-----------------4-4-4/8-8-8-8-8-------|
E|--------------------------6-6-6-4-4-4-4-4-----------------------|

G|----------------------------------------------------------------|
D|6-6-6-6-6-------------------------------------------------------|
A|----------4-4-4/8-8-8-8-8-----------------4-4-4/8-8-8-8-8-------|
E|--------------------------6-6-6-4-4-4-4-4-----------------6-6-6-|

G|----------------------------------------------------------------|
D|--------------------------8-8-8-6-6-6-6-6-----------------------|
A|----------4-4-4/8-8-8-8-8-----------------4-4-4/8-8-8-8-8-------|
E|4-4-4-4-4-------------------------------------------------6-6-6-|

G|----------------------------------------------------------------|
D|--------------------------8-8-8-6-6-6-6-6-----------------------|
A|----------4-4-4/8-8-8-8-8-----------------4-4-4/8-8-8-8-8-------|
E|4-4-4-4-4-------------------------------------------------6-6-6-|


Chorus:
Oh yeah, do you ever think about it ...
G|----------------------------------------------------------------|
D|----------------------------------------------------------------|
A|------------------------------------8-8-8-8-8-8-8-8-8-8-8-8-8-8-|
E|4-4-4-4-4-4-4-4-4-4-4-4-4-4-4-4/6~~-----------------------------|


G|----------------------------------------------------------------|
D|----------------------------------------------------------8-8-8-|
A|------------------------------------8-8-8-8-8-8-8-8-8-8-8-------|
E|4-4-4-4-4-4-4-4-4-4-4-4-4-4-4-4/6~~-----------------------------|


Interlude:
                                 X2
G|----------------------------------------------------------------|
D|6-6-6-6-6-6-6-6-6-6-6-6-6-6-6-6---------------------------------|
A|--------------------------------8-8-8-8-8-8-8-8-8-8-8-8-8-8-8-8-|
E|----------------------------------------------------------------|


Outro:
Pale blue dots suspended in the sky...
G|-------------------------------------------------|
D|6-6---6-6---6-6---x-6--6-6-6---6-6---6-6---x-6--6|
A|-------------------------------------------------|
E|-------------------------------------------------|

G|-------------------------------------------------|
D|6-6---6-6---6-6---x-6--6-6-6---------------------|
A|-------------------------------4-4---8-8---------|
E|-------------------------------------------6-6---|

G|------------------------------------------------|
D|------------------x-8~\-6-6---------------------|
A|------4-4---8-8---------------4-4---8-8---------|
E|4-4---------------------------------------x-6~\-|

G|------------------------------------------------|
D|------------------x-8~\-6-6---------------------|
A|------4-4---8-8---------------4-4---8-8---------|
E|4-4---------------------------------------x-6~\-|

G|----------------------------|
D|------------------x-8~\-6-6-|
A|------4-4---8-8-------------|
E|4-4-------------------------|


************************************

| x  Dead note
| /  Slide up
| \  Slide down
| ~  Vibrato

************************************

Almost there ...

Sign in to get your own page with links to favourite songs and more. You are just one click away...

Login with Facebook Login with Google