Log in

One click and you are in

Login with Facebook Login with Google

Why sign up and log in

Guitar Tabs Explorer
Rolling Blackouts Coastal Fever guitar tabs for French press

French Press tab by Rolling Blackouts Coastal Fever

Rolling Blackouts Coastal Fever guitar tabs for French press

Guitar tabs

Tuning: Standard (E A D G B E)

Some of the lead guitar/solo parts


Intro:

e|-9----9--------------------------9----9------------------9-----------------|
B|-10-----10-------------10--------10-----10------------10---10--------------|
G|-11--------11-------11----11-----11--------11------11---------11-----------|
D|-12--------------12----------12--12-------------12-------------------------|
A|---------------------------------------------------------------------------|
E|---------------------------------------------------------------------------|

e|-9-----9-------------------9---------9-----9-------------------9-----------|
B|-10------10-------------10---10------10------10-------------10---10--------|
G|-11---------11-----------------------11--------11---------11--------11-----|
D|-12--12--------12-----12-------12----12--12------12-----12-----------------|
A|---------------------------------------------------------------------------|
E|---------------------------------------------------------------------------|

It sounds like the chord might be strummed throughout the song.


Chorus 1:
this is pretty rough but sounds like it's close. edits welcome

e|---------------------------------------------------------------------------|x2
B|---------------------------------------------------------------------------|
G|---------------------------------------------------------------------------|
D|-0----0-0---7-0---0-11-7--7-0--0--0--0--11-12-11-9-7---7-9-----------------|
A|-----------------------------------------------------9---------------------|
E|---------------------------------------------------------------------------|

e|---------------------------------------------------------------------------|x2
B|---------------------------------------------------------------------------|
G|---------------------------------------------------------------------------|
D|-9-11--11--11--11-9-11--11--11--11-9-11--11--11--11-14-11-14-11-14---------|
A|---------------------------------------------------------------------------|
E|---------------------------------------------------------------------------|

e|---------------------------------------------------------------------------|x2
B|---------------------------------------------------------------------------|
G|-----11--11--11-14-11--11--11--11-14-11--11--11--11-14-14--14-13-13--13-14-|
D|-(14)-----------------------------------------------12-12--12-11-11--11-12-|
A|---------------------------------------------------------------------------|
E|---------------------------------------------------------------------------|

Other versions of French Press

French pressChords

↓ Add and view comments below ↓

What do you think about this song and these tabs?

Add your comments, questions, rant or a thumbs up below.

Almost there ...

Sign in to get your own page with links to favourite songs and more. You are just one click away...

Login with Facebook Login with Google