Log in

One click and you are in

Login with Facebook Login with Google

Why sign up and log in

Guitar Tabs Explorer
Kenny Rogers bass tabs for Coward of the county

Coward Of The County bass tab by Kenny Rogers

Kenny Rogers bass tabs for Coward of the county

Bass tabs

Tuning: Standard (E A D G)



Intro:
G|------------------------------------------------|
D|------------------------------------------------|
A|-3-----3-----3-----3-----3-----3-----3-----3----|
E|----3-----3-----3-----3-----3-----3-----3-----3-|

Verse 1: (Key Of C)
G|--------------------------------------------------------------------|
D|-------------3---3--------------------------------5-----5-----------|
A|-3-----3------------3-----3-----3-----3-----3--------5-----5---3----|
E|----3-----3------------3-----3-----3-----3-----3------------------3-|

G|---------------------------------------------------------|
D|--------3---3--------------------------5---5-------------|
A|-3-------------3-----3-----3-----3------------3-----3----|
E|----3-------------3-----3-----3-----3------------3-----3-|


Verse 2:
G|--------------------------------------------------------------------|
D|-------------3---3--------------------------------5-----5-----------|
A|-3-----3------------3-----3-----3-----3-----3--------5-----5---3----|
E|----3-----3------------3-----3-----3-----3-----3------------------3-|

G|------------------------------------------------------------|
D|--------3---3--------------------------5---5----------------|
A|-3-------------3-----3-----3-----3------------3-----3---0-2-|
E|----3-------------3-----3-----3-----3------------3----3-----|

Chorus 1:
G|------------------------------------------------------------------------|
D|---------0-2-3---3-----0-2-3---3---------5-----5--------------0-2-3---3-|
A|-3-----3------------3-------------3---3-----5-----5---3-----3-----------|
E|----3----------------------------------------------------3--------------|

G|---------------------------------------------------------|
D|-------------3---3---5-----5-----5-----5-----------------|
A|-3-----3----------------5-----5-----5-----5---3-----3--3-|
E|----3-----3--------------------------------------3-------|

Verses 3 & 4: (Key Change)
G|--------------------------------------------------------------------|
D|-------------4---4--------------------------------6-----6-----------|
A|-4-----4------------4-----4-----4-----4-----4--------6-----6---4----|
E|----4-----4------------4-----4-----4-----4-----4------------------4-|

G|------------------------------------------------------------|
D|--------4---4--------------------------6---6----------------|
A|-4-------------4-----4-----4-----4------------4-----4---1-3-|
E|----4-------------4-----4-----4-----4------------4----4-----|


Chorus 2:
G|------------------------------------------------------------------------|
D|---------1-3-4---4-----1-3-4---4---------6-----6--------------1-3-4---4-|
A|-4-----4------------4-------------4---4-----6-----6---4-----4-----------|
E|----4----------------------------------------------------4--------------|

G|---------------------------------------------------------|
D|-------------4---4---6-----6-----6-----6-----------------|
A|-4-----4----------------6-----6-----6-----6---4-----4--4-|
E|----4-----4--------------------------------------4-------|


Verse 5 & 6: (Key Change)
G|---------------------------------------------------------------------|
D|-------------5---5--------------------------------7------------------|
A|-5-----5------------5-----5-----5-----5-----5--------7-------4--5----|
E|----5-----5------------5-----5-----5-----5-----5--------5--7-------5-|

G|-----------------------------------------------------------|
D|--------5---5--------------------------7---7---------------|
A|-5-------------5-----5-----5-----5------------5-----5--2-4-|
E|----5-------------5-----5-----5-----5------------5---------|


Chorus 3:
G|-------------------------------------------------------------------|
D|-----------4-5---5-------4-5---5---------7-----------------------4-|
A|-5-----5-7----------5--7----------5---5-----7-------4--5-----5-7---|
E|----5------------------------------------------5--7-------5--------|

G|----------------------------------------------------------------|
D|-5---5--------------5---5---7-----7-----7-----7-----------------|
A|--------5-----5----------------7-----7-----7-----7---5-----5----|
E|-----------5-----5--------------------------------------5-----5-|


Outro:     (Break)  (END)
G|-----------------------------|
D|------------4-5--------------|
A|-5-----5--7--------------5---|
E|----5------------------------|

Almost there ...

Sign in to get your own page with links to favourite songs and more. You are just one click away...

Login with Facebook Login with Google