Log in

One click and you are in

Login with Facebook Login with Google

Why sign up and log in

Guitar Tabs Explorer
Silvio Rodriguez tabs for En estos dias

Guitar tabs

EN ESTOS DIAS  (Silvio Rodriguez)


E-|--------8-8-----8-8-----8-8---------5-----5-----5-----5-5---------3---------
B-|------8-------8-------8-------7-------5-----5-----4---------4-------3-------
G-|----0-------0-------0-------5---5-------0-----0-----2-----2---2-------0-----
D-|--------------------------0-------------------------------------------------
A-|------------------0---------------0---------------------2-------------------
E-|--8-------7-------------------------------3-----2---------------0-----------

				 __________
				|sin voz   |
E-|--3-----3-----3-3-----3-3---0----7---5---3---2---0h2h3-----------3---------
B-|----0-----1---------1-----------5------0---------------3---3---------3-----
G-|------0-----0-----0-------2----5---5-------2---2---------2---------0-------
D-|--0--------------------------------------0---------------------0-----------
A-|--------3-------2-------0-----0------------------------------0-------------
E-|-----------------------------------------------------------3---------------
				_____
			       |si canta
				----3---2---
				---3--------
				--2---2---2-
				------------
				-0----------
				------------


Estribillo:					     ----
						    | primera vez
E-|----------2---------------0-----------------------------3-------------------
B-|------3-------3-------1-------1---0-----0-1p0-----0---------0---------------
G-|----2-------2---2---0-------0---0-----0-------2p0-----0---0---0-------------
D-|--------0---------------2-----------0---------------0-----------------------
A-|------------------3---------------------------------------------------------
E-|--2-------------------------------3---------------3-------------------------



   -----
  | el resto
E-|----------------------2---2----------------------0---0----------------------
B-|------------------3-----3-3------------------1-----1-1----------------------
G-|----------------2---------2----------------0---------0----------------------
D-|--5-4-2-0-----------0-----0--4-2-0-------------2-----2--2-0-----------------
A-|----------3-2-0--------------------3-2-0-3-----------3------3-2-0-----------
E-|------------------------------------------------------------------3-2-------




						    C......
E-|--------2---2--------------------2-------2----------------------------------
B-|----3-----3-3----------------3-----3---3-----3------------------------------
G-|--2---------2--------------2---------2-----2---2----------------------------
D-|------0-----0--0---------------0--------------------------------------------
A-|------------0----3-2-0------------------------------------------------------
E-|------------2----------3-2--------------------------------------------------

Utilizando la misma melodia canta la cancion:


Si a alguien le interesa las posturas, puedo intentar escribirlas.
Debido a los cambios que se estan produciendo por aqui tengo una
nueva direccion de correo: jaiglesi@cc.creal.ucma.es





Almost there ...

Sign in to get your own page with links to favourite songs and more. You are just one click away...

Login with Facebook Login with Google