Log in

One click and you are in

Login with Facebook Login with Google

Why sign up and log in

Guitar Tabs Explorer
Rodrigo Y Gabriela guitar tabs for Electric soul

Guitar tabs

Tuning: Standard (E A D G B E)

0:00
e|------------------------------------------------------------------------------------------------|
B|-----8---------------------------------------8--------------------------------------------------|
G|--9~----7~-------7~---9-------------------9~----7~-----7~--------5---------/9-7---------7\5-----|
D|------------5/7---------7--10~----5--5/7-------------------5--7------------------10--7---\---5--|
A|------------------------------------------------------------------------------------------------|
E|------------------------------------------------------------------------------------------------|
0:16
e|--------------------------------3----------2----------------------------------------------------|
B|----5----------------0---------3----------3----5---------5--------------0-----------------------|
G|---5----5--4h5p4----0-----4h5-4---4-5-4--2-------7p5----5---5--4h5h4---0---4--4--4-----------7:|
D|--7--7-------------2-----------------------------------7--7-----------2----5-------7-5-7---7:--|
A|---------------------------------------------------------------------------5--------------------|
E|------------------------------------------------------------------------------------------------|


0:30
e|---------------------------------------------------------------|
B|---------------------------------------------------------------|
G|---------------------------------------------------------------|
D|-/10 10 10 10 10 10 10 9-----------9-9-9-9-9-9-10-9h10p9--7--7-|
A|--------------------------10--10~------------------------------|
E|---------------------------------------------------------------|

e|-----------------------------------------------------------------|
B|--------------------------------------------------------------7--|
G|-----------------5----7~--5h7p5--4--------------------------7----|
D|------5---7~--/7---7----------------/7--5------------------7-7---|
A|--5h7---7---------------------------------/7--5---3-3/5-5--------|
E|-----------------------------------------------------------------|

0:44
e|--------------12--15-----------------------------------------------------------------------12--15------|
B|------13--15----------15~---15-15-15--15--15--13----15--13----15p13----------------13--15----------15~-|
G|--14---------------------------------------------14--------14-------14--12-14--14----------------------|
D|-------------------------------------------------------------------------------------------------------|
A|-------------------------------------------------------------------------------------------------------|
E|-------------------------------------------------------------------------------------------------------|

e|--17-15h17p15--12-----------------|
B|------------------15--13--15------|
G|------------------------------14~-|
D|----------------------------------|
A|----------------------------------|
E|----------------------------------|


0:58
e|------------------8--7----10----------------------------------15------------------------8--7-----7-|
B|------10--8---10---------8---------12-12--12--13--12h13p12---13---------10--8---8--8p10------8---8-|
G|----9-------------------9--------12-------------------------14--------9------------------------7---|
D|--7-----------------------------12----------------------------------7------------------------------|
A|---------------------------------------------------------------------------------------------------|
E|---------------------------------------------------------------------------------------------------|

e|---------------------------10------------|
B|----12--12--12--10-----10----10----------|
G|----12--------------12-------------------|
D|-------------------------------12~-------|
A|-----------------------------------------|
E|-----------------------------------------|


1:13
e|-----------------------------------------------------------------------------------|
B|--13--13--13--13--13--13--13--12--------------12--12--12--12--12--12--13--12h13p12-|
G|--12-------------------------------12--12~----12-----------------------------------|
D|-----------------------------------------------------------------------------------|
A|-----------------------------------------------------------------------------------|
E|-----------------------------------------------------------------------------------|

e|----------------------------------------------------------------------------------------------------------|
B|---------------------------------13----15---13--12h13p12--------------------------------------10---10-----|
G|-14---14---------12----14~---/14----14--------------------14--12h14p12-----------------------11---11------|
D|-----------12h14----14--------------------------------------------------14--12\10-10-10h12--12---12---12--|
A|----------------------------------------------------------------------------------------------------------|
E|----------------------------------------------------------------------------------------------------------|


1:26

e|---------------------------------------------------------------------------------|
B|-----8---------------------------------------8-------------------5---------------|
G|--9~----7~-------7~---9-------------------9~----7~-----7~--------5---7--B7--5----|
D|------------5/7---------7--10~----5--5/7-------------------5--7----------------7-|
A|---------------------------------------------------------------------------------|
E|---------------------------------------------------------------------------------|


1:41
e|----------------------------------------------------------------------------------|
B|----------------------------------------------------------------------------------|
G|--------------------------------------------------------------------------5----9~-|
D|-/10-10-10-10-10-10-10-9h10p9----------9-9-9-9-9-9-10-9h10p9--7--7~---5h7---7-----|
A|------------------------------10--10~---------------------------------------------|
E|----------------------------------------------------------------------------------|

e|---------------------------------------------------------------|
B|--8------------------------------------------------------------|
G|----7----/9------/7-----/5--------------7--7--7--7--7--7--7--7-|
D|------------10------9------7---5--5--7-------------------------|
A|---------------------------------------------------------------|
E|---------------------------------------------------------------|


1:54
e|-------------------------------------------------------------------------------------|
B|-5-----------------------------------------5----------------------------8---10---8---|
G|-5---5--7-b7----5--7-/-9--9---9-------5----5-----5--7--B7---5--7-----/9---9----9---9-|
D|---7------------------------------5h7---7-----7--------------------------------------|
A|-------------------------------------------------------------------------------------|
E|-------------------------------------------------------------------------------------|

e|-----------------------------------------15-x-15-15-x-15-15-x-15-15-15-15-14-x-14-14-x-14-14-x-14-14-14-14-|
B|-5---------------------------------------------------------------------------------------------------------|
G|-5---5--7--b7---5--7-/-9--9---9----9--9--12-x-12-12-x-12-12-x-12-12-12-12-11-x-11-11-x-11-11-x-11-11-11-11-|
D|---7-------------------------------------------------------------------------------------------------------|
A|-----------------------------------------------------------------------------------------------------------|
E|-----------------------------------------------------------------------------------------------------------|


2:08
e|-5-x-x-5-x-8-8-8-8/10-10-10-10-10-10-10-10/12-12-12-x-x-x-12-x-12-x-12-12-x-x-x-|
B|-5-x-x-5-x----------------------------------------------------------------------|
G|-5-x-x-5-x-5-5-5-5/7--7--7--7--7--7--7--7-/9--9--9--x-x-x-9--x-9--x-9--9--x-x-x-|
D|--------------------------------------------------------------------------------|
A|--------------------------------------------------------------------------------|
E|--------------------------------------------------------------------------------|

e|-5-x-x-5-x-8-8-8-8/10-10-10-10-10-10-10-10/12-12-12-x-10-10-10-10\8-8-8-8\7-7-7-|
B|-5-x-x-5-x----------------------------------------------------------------------|
G|-5-x-x-5-x-5-5-5-5/7--7--7--7--7--7--7--7-/9--9--9--x-7--7--7--7-\5-5-5-5\4-4-4-|
D|--------------------------------------------------------------------------------|
A|--------------------------------------------------------------------------------|
E|--------------------------------------------------------------------------------|


2:16
e|-5-x-x-5-x-8-8-8-8/10-10-10-10-10-10-10-10/12-12-12-x-x-x-12-x-12-x-12-12-x-x-x-|
B|-5-x-x-5-x----------------------------------------------------------------------|
G|-5-x-x-5-x-5-5-5-5/7--7--7--7--7--7--7--7-/9--9--9--x-x-x-9--x-9--x-9--9--x-x-x-|
D|--------------------------------------------------------------------------------|
A|--------------------------------------------------------------------------------|
E|--------------------------------------------------------------------------------|

e|-15-15-15-15-x-x-15-15-15-15-x-x-15-15--17---17---17--17--17--17--17--17-|
B|-------------------------------------------------------------------------|
G|-12-12-12-12-x-x-12-12-12-12-x-x-12-12--14---14---14--14--14--14--14--14-|
D|-------------------------------------------------------------------------|
A|-------------------------------------------------------------------------|
E|-------------------------------------------------------------------------|


2:23
e|-----------------------------------------------------------8-7--8p7-----------------------|
B|-------------------------------------------------------5------------10-10---8-10-10p8-----|
G|-----------5-4h5p4---------4h5-4-4-4-4---5--4h5p4----5--------------------------------9-9-|
D|-7-7-7-7-----------5-------------------------------7--------------------------------------|
A|---------------------7--------------------------------------------------------------------|
E|------------------------------------------------------------------------------------------|

e|------------------------------------------------------------------------|
B|----8-7-----------------------------------------------------------------|
G|-/9-----9-7-------------------------------------------------------------|
D|------------10-7--------------------------------------------------------|
A|-----------------10-7---12-12-12-12-12-12-12-12-12-12-12-12-------------|
E|----------------------8-10-10-10-10-10-10-10-10-10-10-10-10-8--8--7--7--|


2:38
e|-------------7-----------------------------------------------------7--------------------------------------|
B|-----8-----8----8-----------------------------------------8------8----8------------------5----------------|
G|-9~-----7---7----7-----7~----9--------------------9~---------7----7----7------7~---------5---7---b7--5----|
D|--------------------------------7--10~-----5--5/7----------------------------------5--7-----------------7-|
A|----------------------------------------------------------------------------------------------------------|
E|----------------------------------------------------------------------------------------------------------|


2:53
e|----------------------------------------------------------------------------------|
B|----------------------------------------------------------------------------------|
G|--------------------------------------------------------------------------5----9~-|
D|-/10 10 10 10 10 10 10 9h10p9----------9-9-9-9-9-9-10-9h10p9--7--7----5h7---7-----|
A|------------------------------10--10~---------------------------------------------|
E|----------------------------------------------------------------------------------|

e|---------------------------------------------------------------|
B|--8------------------------------------------------------------|
G|----7----/9------/7-----/5--------------7--7--7--7--7--7--7--7-|
D|------------10------9------7---5--5--7-------------------------|
A|---------------------------------------------------------------|
E|---------------------------------------------------------------|


3:07
e|----------------------------------------------------------------------------|
B|-5---5-5------5-5------5-5--------------5---5-5------5-5------5-5-----------|
G|-5---5-5------5-5------5-5---------5----5---5-5------5-5------5-5---------5-|
D|---7--------7--------7-------7-5h7--------7--------7--------7-------7-5h7---|
A|----------------------------------------------------------------------------|
E|----------------------------------------------------------------------------|

e|------------------------------------------------------------------------|
B|-5---5-5------5-5------5-5--------------5---5-5-------------------------|
G|-5---5-5------5-5------5-5---------5----5---5-5------5-7-b7--b7--b7--b7-|
D|---7--------7--------7-------7-5h7--------7--------7--------------------|
A|------------------------------------------------------------------------|
E|------------------------------------------------------------------------|


3:21
e|-12-12-12-12-x-x-x-12-x-12-x-12-12-12-x-x-10-10-10-10-x-x-12-12-12-12-10-10-10-10-x-x-|
B|-13-13-13-13-x-x-x-13-x-13-x-13-13-13-x-x-12-12-12-12-x-x-12-12-12-12-12-12-12-12-x-x-|
G|-14-14-14-14-x-x-x-14-x-14-x-14-14-14-x-x-12-12-12-12-x-x-12-12-12-12-12-12-12-12-x-x-|
D|--------------------------------------------------------------------------------------|
A|--------------------------------------------------------------------------------------|
E|--------------------------------------------------------------------------------------|

e|-7-7-7-7-x-x-x-7-x-7-x-7-7-7-x-x-8--8--8--8--x-x-8--8--8--8--x-x-8--8--|
B|-8-8-8-8-x-x-x-8-x-8-x-8-8-8-x-x-10-10-10-10-x-x-10-10-10-10-x-x-10-10-|
G|-9-9-9-9-x-x-x-9-x-9-x-9-9-9-x-x-10-10-10-10-x-x-10-10-10-10-x-x-10-10-|
D|-----------------------------------------------------------------------|
A|-----------------------------------------------------------------------|
E|-----------------------------------------------------------------------|

e|-12-12-12-12-x-x-x-12-x-12-x-12-12-12-x-x-10-10-10-10-x-x-12-12-12-12-10-10-10-10-x-x-|
B|-13-13-13-13-x-x-x-13-x-13-x-13-13-13-x-x-12-12-12-12-x-x-12-12-12-12-12-12-12-12-x-x-|
G|-14-14-14-14-x-x-x-14-x-14-x-14-14-14-x-x-12-12-12-12-x-x-12-12-12-12-12-12-12-12-x-x-|
D|--------------------------------------------------------------------------------------|
A|--------------------------------------------------------------------------------------|
E|--------------------------------------------------------------------------------------|

e|-7-7-7-7-x-x-x-7-x-7-x-7-7-7-x-x--------------------------------------------------|
B|-8-8-8-8-x-x-x-8-x-8-x-8-8-8-x-x--------------------------------------------------|
G|-9-9-9-9-x-x-x-9-x-9-x-9-9-9-x-x--12h14-14-14-12h14-14-14-12h14-14-14-12h14-14-14-|
D|----------------------------------------------------------------------------------|
A|----------------------------------------------------------------------------------|
E|----------------------------------------------------------------------------------|


3:35
e|-12----15-------------------12-------------------12~----15-------------|
B|----------15~---------15~---------13~----------------------15~-----15~-|
G|----------------12/14----------14-------12-12-14-----------------------|
D|-----------------------------------------------------------------------|
A|-----------------------------------------------------------------------|
E|-----------------------------------------------------------------------|

e|----------------------------------------------8-|
B|---------13-15-b15-15-13---------------------10-|
G|---12h14------------------------------------9---|
D|-------------------------12\10----10~------7----|
A|-------------------------------12---------0-----|
E|------------------------------------------------|


h - hammer-on
p - pull-off
b - bend
/ - slide up
: - harmonic
~ - vibrato
x - mute

Almost there ...

Sign in to get your own page with links to favourite songs and more. You are just one click away...

Login with Facebook Login with Google