Log in

One click and you are in

Login with Facebook Login with Google

Why sign up and log in

Guitar Tabs Explorer
Rockfour tabs for Seatbelts

Guitar tabs with lyrics

Seatbelts-- Rockfour (from "One fantastic day").

Intro:


           A chord diagramDmDm             A chord diagramA minorAm          Bd                   A chord diagramG minorGm


E-|----------1-----------0------------------------------------3-----|
B-|-------3-----------2--------------3---------------------3-----3--|
G-|----2-----------2--------------3-----3-------2-3-----3-----------|
D-|-0--------------2-----------3-----------3----2-5--5--------------|
A-|-------------0-----------1-----------------0---5-----------------|
E-|-----------------------------------------------3-----------------|


                 A chord diagramDmDm            A chord diagramDmDm              A chord diagramA augmentedA           Bd

E-|---------------------------------1-----------0-------------------|
B-|-------------6----------------3-----------2--------------3-------|
G-|3----7-----7-----7---------2-----------2--------------3-----3----|
D-|--------7-----------7---0--------------2-----------3-----------3-|
A-|---5-5----------------5-------------0-----------1----------------|
E-|-----------------------------------------------------------------|


                       A chord diagramG minorGm                  A chord diagramDmDm                Bd

E-|-------------3--------3--------------1---------------------------|
B-|----------------3-----3-----3-----3--------3-------------3-------|
G-|--2-3-----3--------3-----3-----2---------2---2--------3-----3----|
D-|--2-5--5--------------------0----------------------3-----------3-|
A-|0---5-------------------------------------------1----------------|
E-|----3------------------------------------------------------------|


      Bd     A chord diagramA augmentedA                     A chord diagramFdimFdim     A chord diagramA augmentedA

E-|---------------0--------0-----1---1--------0------------0--------|
B-|3-----------2-----2-----2--2--0----0-0------2--0--2--3---2-------|
G-|---3-----2-----------2-----2--1-1---1-------2---2--2--2--2-------|
D-|---------2--------------------0--------2-2-----------------------|
A-|------0--------------------------------0-------------------------|
E-|-----------------------------------------------------------------|


After a preaty long intro the singer (Eli Lulay) starts singing, verse 1 is
preaty much like the intro but I'll put it in again for keeping the order of
the
song:


Verse 1:


A chord diagramG minorGm
E-|----------1-----------0------------------------------------3-----|
B-|-------3-----------2--------------3---------------------3-----3--|
G-|----2-----------2--------------3-----3-------2-3-----3-----------|
D-|-0--------------2-----------3-----------3----2-5--5--------------|
A-|-------------0-----------1-----------------0---5-----------------|
E-|-----------------------------------------------3-----------------|

     Seat belts are...

                 A chord diagramDmDm            A chord diagramDmDm              A chord diagramA augmentedA           Bd

E-|---------------------------------1-----------0-------------------|
B-|-------------6----------------3-----------2--------------3-------|
G-|3----7-----7-----7---------2-----------2--------------3-----3----|
D-|--------7-----------7---0--------------2-----------3-----------3-|
A-|---5-5----------------5-------------0-----------1----------------|
E-|-----------------------------------------------------------------|


                  A chord diagramG minorGm                  A chord diagramDmDm                Bd

E-|-------------3--------3--------------1---------------------------|
B-|----------------3-----3-----3-----3--------3-------------3-------|
G-|--2-3-----3--------3-----3-----2---------2---2--------3-----3----|
D-|--2-5--5--------------------0----------------------3-----------3-|
A-|0---5-------------------------------------------1----------------|
E-|----3------------------------------------------------------------|


      Bd     A chord diagramA augmentedA                     A chord diagramFdimFdim     A chord diagramA augmentedA

E-|---------------0--------0-----1---1--------0------------0--------|
B-|3-----------2-----2-----2--2--0----0-0------2--0--2--3---2-------|
G-|---3-----2-----------2-----2--1-1---1-------2---2--2--2--2-------|
D-|---------2--------------------0--------2-2-----------------------|
A-|------0--------------------------------0-------------------------|
E-|-----------------------------------------------------------------|











Verse 2 is a little bit different:


           A chord diagramDmDm             A chord diagramA augmentedA           Bd                   A chord diagramG minorGm


E-|----------1-----------0------------------------------------3-----|
B-|-------3-----------2--------------3---------------------3-----3--|
G-|----2-----------2--------------3-----3-------2-3-----3-----------|
D-|-0--------------2-----------3-----------3----2-5--5--------------|
A-|-------------0-----------1-----------------0---5-----------------|
E-|-----------------------------------------------3-----------------|

  Came uninvited...


                 A chord diagramDmDm            A chord diagramDmDm              A chord diagramA augmentedA           Bd

E-|---------------------------------1-----------0-------------------|
B-|-------------6----------------3-----------2--------------3-------|
G-|3----7-----7-----7---------2-----------2--------------3-----3----|
D-|--------7-----------7---0--------------2-----------3-----------3-|
A-|---5-5----------------5-------------0-----------1----------------|
E-|-----------------------------------------------------------------|

             A chord diagramG minorGm                      A chord diagramDmDm                Bd
E-|-------------3--------3--------------1---------------------------|
B-|----------------3-----3-----3-----3--------3----------------3----|
G-|--2-3-----3--------3-----3-----2---------2---2-----3-----3-----3-|
D-|--2-5--5--------------------0-------------------------3----------|
A-|0---5-------------------------------------------1----------------|
E-|----3------------------------------------------------------------|




E-|------------------|
B-|-------------5b6--|
G-|---5s7-5---7------|
D-|-3----------------|
A-|------------------|
E-|------------------|



Chorus:
    A chord diagramDmDm          A chord diagramG+G         G/F       A chord diagramE MajorE                       A chord diagramA minorAm

E-|--5---------------3---------3---------------0-----0--------------|
B-|--6----------------3---------3---------0-------0-----0--------1--|
G-|--7---------------------------------1-----1-----1-----1--2-----2-|
D-|--7------------------------------------------------------2--2----|
A-|--5-------------2---------2------------------------------0-------|
E-|-------------3-------3-1-------1-0-------------------------------|

                 Ohhh...                 turn it on...
      A chord diagramAm/GAm/G          A chord diagramFF             A chord diagramG+G

E-|----------------------------------3-----1-----3---1-------0--0--0|
B-|--------1-------0-1----0--1--------3----3--3---3-----0-----0----0|
G-|---------2---------2---2--2-----------0-0------------1--1-------1|
D-|------2---------3----3-3--3-------------------------------------2|
A-|-0------------------------------2-------------------------------2|
E-|---3-------3-1---------------3-----------------------------------|
                  Play it loud before...


       A chord diagramA minorAm          A chord diagramAm/GAm/G         A chord diagramFF               A chord diagramDmDm
E-|----------------------------------------------1----1---------1---|
B-|---------1----------1--------------0----1-----3--3------3------3-|
G-|----------2----------2----------2----2----2---2-------2----2-----|
D-|-------2----------2-----------3--3------------0------------------|
A-|----0--------0---------------------------------------------repeat few times..
E-|---------------3---------3-1-------------------------------------|


This is  a beautiful part between the churos and the verse...

             Bd                Ed                      A chord diagramC#5C#5+
E-|------------------------------------------------------5--------5-|
B-|----------3--------------------8--------8----------6-----6-------|
G-|-------3-----3--------------8-----8-------------6-----------6----|
D-|----3-----------3--------8-----------8-----8-7-------------------|
A-|-1----------------1ss6-------------------------------------------|
E-|-----------------------------------------------------------------|


              A chord diagramDmDm                      Bd                   A chord diagramA augmentedA
E-|-----------------------------------------------------------------|
B-|-------------6--------------------------------------------5------|
G-|-6--------7------7----------------7--------7-----------6-----6---|
D-|-------7-----------7-----------8-----8--------8-----7-----------7|
A-|----5------------------5----8-----------8------------------------|
E-|-------------------------6-----------------------5---------------|



          A chord diagramFdimFdim               A chord diagramA augmentedA
E-|-------1-----1-----------0----------------------|
B-|-5-----0--------------------2--0-----2----3b4r3-|
G-|----6--1--1-----1-----------2----2-----2--------|
D-|-------0--------------2-------------------------|
A-|-------------------0----------------------------|
E-|------------------------------------------------|

After this part comes verse 3 which it almost like the first one  and then
another chorus.

Hope you enjoyed, any comments, correcting, flowers or underwear can be
received
on e mail: itamarn@hotmail.com

Itamar Nevo.
ⓘ Guitar tab for 'Seatbelts' by, a female blues artist from Tennessee, United States. was born in 1957.

Almost there ...

Sign in to get your own page with links to favourite songs and more. You are just one click away...

Login with Facebook Login with Google