Log in

One click and you are in

Login with Facebook Login with Google

Why sign up and log in

Guitar Tabs Explorer
Smokey Robinson chords for My girl intro ukulele

My Girl Intro Ukulele chords by Smokey Robinson

Smokey Robinson chords for My girl intro ukulele

Guitar chords

A----7----5---7---353--3--5-3-0-------|
E-------------------------------------|
C-------------------------------------|
G-----------------------------------0-|

  I've got sun-shine on a cloudy day

-----3----5-----7---3----3------------|
--------------------------------------|
--------------------------------------|
--------------------------------------|
  When it's cold out-side

------5---3---0----3----0--0----------|
--------------------------------------|
--------------------------------------|
-----------------------------0--------|
  I've got the month of May

-0-------0------3---5-----------------|
--------------------------------------|
--------------------------------------|
-----0----------2---4-----------------|
Well I guess you'd say

-----------0--0----3----3---57----------|
----------------------------------------|
----------------------------------------|
-0----0---------------------------------|
What can make me feel this way

3--------3---------7-------------------0-------5-2-0------------------------|
----------------------------0-0------------0--------------------------------|
----------------------------------------------------------------------------|
----0--------0--------5------------0---0---0---------0----------------------|

Almost there ...

Sign in to get your own page with links to favourite songs and more. You are just one click away...

Login with Facebook Login with Google