Log in

One click and you are in

Login with Facebook Login with Google

Why sign up and log in

Guitar Tabs Explorer
Connor Roberts chords for Ptolomys valley

Chords

------------------------------------------
Comments/Questions to <[email protected]>
4:37PM  4/17/97
------------------------------------------
"Ptolomy's Valley" by Connor Roberts
(from single, "Greater than Grass and Above")
Tune flat, down 1/2 to: Eb, Ab, Db, Gb, Bb, eb


[INTRO]
e-----------------------------------------------------------------
B-----------------------------------------------------------------
G-----------------------------------------------------------------
D--------9-----------5-------------12-----------7-----------9-----
A-----9-----0-----5-----0------12------0-----7-----0-----9-----0--
E--7-----------3-----------10-------------5-----------7-----------


              1st Ending               2nd Ending
e-------------I------------------------I------------------------II
B-------------I------------------------I------------------------II
G-------------I------------------------I------------------------II
D--------5----I-------7-----------4----I-------4-----4-----4----II
A-----5-----0-I----7-----0-----4-----0-I----4-----4-----4-----0-II
E--3----------I-5-----------2----------I-2----------------------II


[VERSE]
e-----------------------------------------------------------------
B-----------------------------------------------------------------
G-----------------------------------------------------------------
D-9--9--9--0---5--5--5--0---12--12--12--0---7--7--7--0------------
A-9--9--9--0---5--5--5--0---10--10--10--0---7--7--7--0------------
E-7--7--7--0---3--3--3--0---10--10--10--0---5--5--5--0------------
                          1st Ending                2nd Ending
e-------------------------I-------------------------I-------------
B-------------------------I-------------------------I-------------
G-------------------------I-------------------------I-------------
D-9--9--9--0---5--5--5--0-I-7--7--7--0---4--4--4--0-I-------4-----
A-9--9--9--0---5--5--5--0-I-7--7--7--0---4--4--4--0-I----4-----0--
E-7--7--7--0---3--3--3--0-I-5--5--5--0---2--2--2--0-I-2-----------

e-------------II
B-------------II
G-------------II
D-4--4--4--0--II
A-4--4--4--0--II
E-2--2--2--0--II


[Riff 1]
e-----------------------------------------------------------------
B-----------------------------------------------------------------
G-----------------------------------------------------------------
D-9--9--0---5--5--0---7--7--0---4--4--0---------------------------
A-9--9--0---5--5--0---7--7--0---4--4--0---------------------------
E-7--7--0---3--3--0---5--7--0---2--2--0---------------------------



Verse 1:
We came in, as ....


Chorus:
And we came with nothing in ....


Verse 2:
We saw a girl, standing in ...

(Chorus)


Verse 3:
And once again...

(play Riff 1, 4 times and fade)

--------------------------------------------------
If you use this tab refer to <[email protected]>
--------------------------------------------------

Almost there ...

Sign in to get your own page with links to favourite songs and more. You are just one click away...

Login with Facebook Login with Google