Log in

One click and you are in

Login with Facebook Login with Google

Why sign up and log in

Guitar Tabs Explorer
Marty Robbins bass tabs for Cool water

Bass tabs

Intro:

G|-----------------|----------------------|
D|-----------------|----------------------|
A|------9----------|--7-------7-------6---|
E|--7-------7---7--|------7-------7-9-----|
Verse 1:
"All day I've faced..."
G|-----------------|-------------------|-----------------|-------------------|
D|-----------------|-------------------|-----------------|--------6----------|
A|--7---7----------|--7---7--------9---|----------7------|--7-7-9------------|
E|----------7---7--|-----------7-------|--7---7-------7--|-------------------|

"Old Dan and I..."                   "cool,  clear..."
G|-----------------|-----------------|-----------------|---------------------|
D|--7---7---9------|-----------------|-----------------|---------------------|
A|-----------------|--7---7----------|--7-------7---7--|------9--------------|
E|--------------7--|----------5---5--|------7----------|--7-------7---7------|
"waterrr."
G|-------------------|
D|-------------------|
A|--7-------7-----6--|
E|------7-------7----|


Verse 2:
"The nights are cool..."
G|-----------------|-----------------|-----------------|---------------------|
D|-----------------|-----------------|-----------------|--------6------------|
A|--7---7----------|--7---7-------9--|----------7------|--7-7-9--------------|
E|----------7---7--|----------7------|--7---7-------7--|---------------------|
                            "cool,  clear..."
G|-----------------|-----------------|-----------------|---------------------|
D|--7---7---9------|----------7---7--|-----------------|---------------------|
A|-----------------|--7---7----------|--7-------7---7--|------9---------9----|
E|--------------7--|-----------------|------7----------|--7--------7------7--|
"waterrr."
G|---------------------|
D|---------------------|
A|--7-------7-------6--|
E|------7-------7-9----|


Verse 3:
"Keep a-moving, Dan..."
G|-----------------|-----------------|---------------------|-----------------|
D|-----------------|-----------------|------------------6--|--7---7----------|
A|--7---7----------|--7---7----------|--7-------7---7-9----|----------7---7--|
E|----------7---7--|----------7---7--|------7--------------|-----------------|

G|-----------------|-----------------|-----------------|---------------------|
D|--7---7---9------|----------7---7--|-----------------|---------------------|
A|-----------------|--7---7----------|--7-------7---7--|------9--------------|
E|--------------7--|-----------------|------7----------|--7-------7---7------|
"waterrr."
G|---------------------|
D|---------------------|
A|--7-------7-------6--|
E|------7---------7----|


Verse 4:
The shadows sway..."
G|-----------------|-----------------|-----------------|---------------------|
D|-----------------|-----------------|-----------------|----------6----------|
A|--7---7----------|--7---7-------9--|----------7------|--7---7-9------------|
E|----------7---7--|----------7------|--7---7-------7--|---------------------|
"And way up there..."
G|-----------------|-----------------|-----------------|---------------------|
D|--7---7---9---9--|----------7---7--|-----------------|---------------------|
A|-----------------|--7---7----------|--7-------7---7--|------9--------------|
E|-----------------|-----------------|------7----------|--7-------7---7------|
"waterrr."
G|---------------------|
D|---------------------|
A|--7-------7-------6--|
E|------7---------7----|


Verse 5:
"Keep a-moving, Dan..."
G|-----------------|-----------------|---------------------|-----------------|
D|-----------------|-----------------|------------------6--|--7---7----------|
A|--7---7----------|--7---7----------|--7-------7---7-9----|----------7---7--|
E|----------7---7--|----------7---7--|------7--------------|-----------------|
                             "cool,  clear..."
G|-----------------|-----------------|-------------------|-------------------|
D|--7---7---9------|----------7---7--|-------------------|-------------------|
A|-----------------|--7---7----------|--7-------7---7----|------9------------|
E|--------------7--|-----------------|------7---------9--|--7-------7---7----|

End:
(no bass)

"waaterrr.
Cool, clear
waterrrrr."

Almost there ...

Sign in to get your own page with links to favourite songs and more. You are just one click away...

Login with Facebook Login with Google