Log in

One click and you are in

Login with Facebook Login with Google

Why sign up and log in

Guitar Tabs Explorer
Rise Against bass tabs for The numbers

Bass tabs

  • Difficulty: Intermediate
Tuning: Half-Step Down (Eb Ab Db Gb)


Intro - 0:16: 6/8 110 BPM

F#|------------------------|------------------------|------------------------|------------------------|
C#|------------------------|------------------------|------------------------|------------------------|
G#|------------------------|------------------------|------------------------|------------------------|
D#|------------------------|------------------------|------------------------|------------------------|
  1 + 2 + 3 + 4 + 5 + 6 + 1 + 2 + 3 + 4 + 5 + 6 + 1 + 2 + 3 + 4 + 5 + 6 + 1 + 2 + 3 + 4 + 5 + 6 +

F#|------------------------|------------------------|------------------------|------------------------|
C#|------------------------|------------------------|------------------------|----------------0---2---|
G#|------------------------|------------------------|------------------------|------------------------|
D#|5-5---5---5-5-5---5---5-|5-5---5---5-5---5---5---|5-5---5---5-5-5---5---5-|5-5---5---5-5-----------|
  1 + 2 + 3 + 4 + 5 + 6 + 1 + 2 + 3 + 4 + 5 + 6 + 1 + 2 + 3 + 4 + 5 + 6 + 1 + 2 + 3 + 4 + 5 + 6 +

F#|------------------------|------------------------|------------------------|------------------------|
C#|3-3---3---3-3-3---3---3-|3-3---3---3-3---5---3---|------------------------|------------------------|
G#|------------------------|------------------------|3-3---3---3-3---3---3---|5-5---5---5-7---7---7---|
D#|------------------------|------------------------|------------------------|------------------------|
  1 + 2 + 3 + 4 + 5 + 6 + 1 + 2 + 3 + 4 + 5 + 6 + 1 + 2 + 3 + 4 + 5 + 6 + 1 + 2 + 3 + 4 + 5 + 6 +

F#|------------------------|------------------------|------------------------|------------------------|
C#|------------------------|------------------------|------------------------|----------------0---2---|
G#|------------------------|------------------------|------------------------|------------------------|
D#|5-5---5---5-5-5---5---5-|5-5---5---5-5---5---5---|5-5---5---5-5-5---5---5-|5-5---5---5-5-----------|
  1 + 2 + 3 + 4 + 5 + 6 + 1 + 2 + 3 + 4 + 5 + 6 + 1 + 2 + 3 + 4 + 5 + 6 + 1 + 2 + 3 + 4 + 5 + 6 +

F#|------------------------|------------------------|------------------------|------------------------|
C#|3-3---3---3-3-3---3---3-|3-3---3---3-3---5---3---|------------------------|------------------------|
G#|------------------------|------------------------|3-3---3---3-3---3---3---|5-5---5---5-7---7---7---|
D#|------------------------|------------------------|------------------------|------------------------|
  1 + 2 + 3 + 4 + 5 + 6 + 1 + 2 + 3 + 4 + 5 + 6 + 1 + 2 + 3 + 4 + 5 + 6 + 1 + 2 + 3 + 4 + 5 + 6 +

Verse 1 - 0:55: 4/4 165 BPM

F#|--------------------------------|--------------------------------|
C#|--------------------------------|--------------------------------|
G#|--------------------------------|--------------------------------|
D#|5---5-5---5-5---5---5-5---5-5---|5---5-5---5-5---5---5-5---5-5---|
  1 + + + 2 + + + 3 + + + 4 + + + 1 + + + 2 + + + 3 + + + 4 + + +

F#|--------------------------------|--------------------------------|
C#|--------------------------------|--------------------------------|
G#|--------------------------------|--------------------------------|
D#|5---5-5---5-5---5---5-5---5-5---|5---5-5---5-5---5---5-5---5-5---|
  1 + + + 2 + + + 3 + + + 4 + + + 1 + + + 2 + + + 3 + + + 4 + + +

F#|--------------------------------|--------------------------------|
C#|--------------------------------|2-------------------------------|
G#|----------------3---------------|----3-------3-------------------|
D#|5---5-5---5-5-------5-5---5-5---|----------------3---0---3---0---|
  1 + + + 2 + + + 3 + + + 4 + + + 1 + + + 2 + + + 3 + + + 4 + + +

F#|--------------------------------|--------------------------------|
C#|--------------------------------|--------------------------------|
G#|----------------3---------------|--------------------------------|
D#|5---5-5---5-5-------5-5---5-5---|1---1-1---1-1---3---3-3---3-3---|
  1 + + + 2 + + + 3 + + + 4 + + + 1 + + + 2 + + + 3 + + + 4 + + +

F#|--------------------------------|--------------------------------|
C#|--------------------------------|3-------------------------------|
G#|----------------3---------------|----3-3---3-3-------------------|
D#|5---5-5---5-5-------5-5---5-5---|----------------3---1---3---1---|
  1 + + + 2 + + + 3 + + + 4 + + + 1 + + + 2 + + + 3 + + + 4 + + +

F#|--------------------------------|--------------------------------|
C#|--------------------------------|--------------------------------|
G#|--------------------------------|----------------3-------5-------|
D#|3---3-3---3-1---3---3-3---3-1---|3---3-3---3-1-------------------|
  1 + + + 2 + + + 3 + + + 4 + + + 1 + + + 2 + + + 3 + + + 4 + + +

F#|--------------------------------|--------------------------------|
C#|--------------------------------|2-------------------------------|
G#|----------------3---------------|----3-------3-------------------|
D#|5---5-5---5-5-------5-5---5-5---|----------------3---0---3---0---|
  1 + + + 2 + + + 3 + + + 4 + + + 1 + + + 2 + + + 3 + + + 4 + + +

F#|--------------------------------|--------------------------------|
C#|--------------------------------|--------------------------------|
G#|----------------3---------------|--------------------------------|
D#|5---5-5---5-5-------5-5---5-5---|1---1-1---1-1---3---3-3---3-3---|
  1 + + + 2 + + + 3 + + + 4 + + + 1 + + + 2 + + + 3 + + + 4 + + +

F#|--------------------------------|--------------------------------|
C#|--------------------------------|3-------------------------------|
G#|----------------3---------------|----3-3---3-3-------------------|
D#|5---5-5---5-5-------5-5---5-5---|----------------3---1---3---1---|
  1 + + + 2 + + + 3 + + + 4 + + + 1 + + + 2 + + + 3 + + + 4 + + +

F#|--------------------------------|----------------4-------5-------|
C#|--------------------------------|--------------------------------|
G#|--------------------------------|--------------------------------|
D#|3---3-3---3-1---3---3-3---3-1---|3---3-3---3-1-------------------|
  1 + + + 2 + + + 3 + + + 4 + + + 1 + + + 2 + + + 3 + + + 4 + + +

 ------------------------3------------------------:
F#|------------------------|------------------------|
C#|------------------------|------------------------|
G#|------------------------|------------------------|
D#|1-----------------------|5---5---5---3---3---3---|
  1 + 2 + 3 + 4 + 5 + 6 + 1 + 2 + 3 + 4 + 5 + 6 +

 ------------------------3------------------------:
F#|------------------------|------------------------|
C#|3-----------------------|------------------------|
G#|------------------------|3---5---3---------------|
D#|------------------------|------------3---1---3---|
  1 + 2 + 3 + 4 + 5 + 6 + 1 + 2 + 3 + 4 + 5 + 6 +

          ------------3-----------:
F#|----------------|------------------------|
C#|----------------|------------------------|
G#|----------------|------------------------|
D#|1-1-1-1-1-1-1-1-|5---5---5---1---1---1---|
  1 + 2 + 3 + 4 + 1 + 2 + 3 + 4 + 5 + 6 +

F#|----------------|----------------|
C#|----------------|3-3-3-3-5-------|
G#|----------------|----------------|
D#|3---3-3-3-3-3-3-|----------------|
  1 + 2 + 3 + 4 + 1 + 2 + 3 + 4 +


Chorus - 1:37: 6/8 110 BPM

F#|------------------------|------------------------|------------------------|------------------------|
C#|------------------------|------------------------|------------------------|----------------0---2---|
G#|------------------------|------------------------|------------------------|------------------------|
D#|5-5---5---5-5-5---5---5-|5-5---5---5-5---5---5---|5-5---5---5-5-5---5---5-|5-5---5---5-5-----------|
  1 + 2 + 3 + 4 + 5 + 6 + 1 + 2 + 3 + 4 + 5 + 6 + 1 + 2 + 3 + 4 + 5 + 6 + 1 + 2 + 3 + 4 + 5 + 6 +

F#|------------------------|------------------------|------------------------|------------------------|
C#|3-3---3---3-3-3---3---3-|3-3---3---3-3---5---3---|------------------------|------------------------|
G#|------------------------|------------------------|3-3---3---3-3---3---3---|5-5---5---5-7---7---7---|
D#|------------------------|------------------------|------------------------|------------------------|
  1 + 2 + 3 + 4 + 5 + 6 + 1 + 2 + 3 + 4 + 5 + 6 + 1 + 2 + 3 + 4 + 5 + 6 + 1 + 2 + 3 + 4 + 5 + 6 +

F#|------------------------|------------------------|------------------------|------------------------|
C#|------------------------|------------------------|------------------------|----------------0---2---|
G#|------------------------|------------------------|------------------------|------------------------|
D#|5-5---5---5-5-5---5---5-|5-5---5---5-5---0---3---|5-5---5---5-5-5---5---5-|5-5---5---5-5-----------|
  1 + 2 + 3 + 4 + 5 + 6 + 1 + 2 + 3 + 4 + 5 + 6 + 1 + 2 + 3 + 4 + 5 + 6 + 1 + 2 + 3 + 4 + 5 + 6 +

F#|------------------------|------------------------|------------------------|------------------------|
C#|3-3---3---3-3-3---3---3-|3-3---3---3-3---5---3---|------------------------|------------------------|
G#|------------------------|------------------------|3-3---3---3-3---3---3---|5-5---5---5-7---7---7---|
D#|------------------------|------------------------|------------------------|------------------------|
  1 + 2 + 3 + 4 + 5 + 6 + 1 + 2 + 3 + 4 + 5 + 6 + 1 + 2 + 3 + 4 + 5 + 6 + 1 + 2 + 3 + 4 + 5 + 6 +


Verse 2 - 2:03: 4/4 165 BPM

F#|----------------------------------------------------------------|
C#|----------------------------------------------------------------|
G#|12------12------12------12------12------12--12--12--12--12--12--|
D#|----------------------------------------------------------------|
  1  +  +  +  2  +  +  +  3  +  +  +  4  +  +  +

F#|----------------------------------------------------------------|
C#|----------------------------------------------------------------|
G#|12------12------12------12------12------12------12------12------|
D#|----------------------------------------------------------------|
  1  +  +  +  2  +  +  +  3  +  +  +  4  +  +  +

F#|----------------------------------------------------------------|
C#|----------------------------------------------------------------|
G#|12------12------12------12------12------12------12------12------|
D#|----------------------------------------------------------------|
  1  +  +  +  2  +  +  +  3  +  +  +  4  +  +  +

F#|----------------------------------------------------------------|
C#|----------------------------------------------------------------|
G#|12------12--12--12--12--12--12--12------10----------------------|
D#|------------------------------------------------13------12------|
  1  +  +  +  2  +  +  +  3  +  +  +  4  +  +  +

F#|----------------------------------------------------------------|
C#|--------------------------------10------------------------------|
G#|12------12--12------12--12--------------12--12------12--12------|
D#|----------------------------------------------------------------|
  1  +  +  +  2  +  +  +  3  +  +  +  4  +  +  +

F#|9---------------------------------------------------------------|
C#|--------10--------------10--------------------------------------|
G#|--------------------------------10------7-------10------7-------|
D#|----------------------------------------------------------------|
  1  +  +  +  2  +  +  +  3  +  +  +  4  +  +  +

F#|----------------------------------------------------------------|
C#|--------------------------------10------------------------------|
G#|12------12--12------12--12--------------12--12------12--12------|
D#|----------------------------------------------------------------|
  1  +  +  +  2  +  +  +  3  +  +  +  4  +  +  +

F#|----------------------------------------------------------------|
C#|----------------------------------------------------------------|
G#|8-------8---8-------8---8-------10------10--10------10--10------|
D#|----------------------------------------------------------------|
  1  +  +  +  2  +  +  +  3  +  +  +  4  +  +  +

F#|----------------------------------------------------------------|
C#|--------------------------------10------------------------------|
G#|12------12--12------12--12--------------12--12------12--12------|
D#|----------------------------------------------------------------|
  1  +  +  +  2  +  +  +  3  +  +  +  4  +  +  +

F#|9---------------------------------------------------------------|
C#|--------10--------------10--------------------------------------|
G#|--------------------------------10------8-------10------8-------|
D#|----------------------------------------------------------------|
  1  +  +  +  2  +  +  +  3  +  +  +  4  +  +  +

F#|----------------------------------------------------------------|
C#|----------------------------------------------------------------|
G#|10------10--10------10--8-------10------10--10------10--8-------|
D#|----------------------------------------------------------------|
  1  +  +  +  2  +  +  +  3  +  +  +  4  +  +  +

F#|----------------------------------------------------------------|
C#|----------------------------------------------------------------|
G#|10--------------------------------------------------------------|
D#|----------------------------------------------------------------|
  1  +  +  +  2  +  +  +  3  +  +  +  4  +  +  +

F#|--------------------------------|--------------------------------|
C#|--------------------------------|2-------------------------------|
G#|----------------3---------------|----3-------3-------------------|
D#|5---5-5---5-5-------5-5---5-5---|----------------3---0---3---0---|
  1 + + + 2 + + + 3 + + + 4 + + + 1 + + + 2 + + + 3 + + + 4 + + +

F#|--------------------------------|--------------------------------|
C#|--------------------------------|--------------------------------|
G#|----------------3---------------|--------------------------------|
D#|5---5-5---5-5-------5-5---5-5---|1---1-1---1-1---3---3-3---3-3---|
  1 + + + 2 + + + 3 + + + 4 + + + 1 + + + 2 + + + 3 + + + 4 + + +

F#|--------------------------------|--------------------------------|
C#|--------------------------------|3-------------------------------|
G#|----------------3---------------|----3-3---3-3-------------------|
D#|5---5-5---5-5-------5-5---5-5---|----------------3---1---3---1---|
  1 + + + 2 + + + 3 + + + 4 + + + 1 + + + 2 + + + 3 + + + 4 + + +

F#|--------------------------------|----------------------------------------------------------------|
C#|--------------------------------|----------------------------------------------------------------|
G#|----------------------------5/--|10--10--10--10--12--12--12--12--14--14--14--14--15--15--15--15--|
D#|3---3-3---3-1---3---3-3---3-----|----------------------------------------------------------------|
  1 + + + 2 + + + 3 + + + 4 + + + 1  +  +  +  2  +  +  +  3  +  +  +  4  +  +  +

F#|----------------|----------------|----------------|----------------|
C#|----------------|----------------|----------------|----------------|
G#|----------------|----------------|----------------|3-3-3-3---------|
D#|1-1-1-1-1-1-1-1-|5-5-5-5-3-3-3-3-|1-1-1-1-1-1-1-1-|--------3-3-3-3-|
  1 + 2 + 3 + 4 + 1 + 2 + 3 + 4 + 1 + 2 + 3 + 4 + 1 + 2 + 3 + 4 +

F#|----------------|----------------|----------------|
C#|----------------|----------------|----------------|
G#|----------------|----------------|----------------|
D#|1-1-1-1-1-1-1-1-|5-5-5-5-1-1-1-1-|3-3-3-3-3-3-3-3-|
  1 + 2 + 3 + 4 + 1 + 2 + 3 + 4 + 1 + 2 + 3 + 4 +

 ------------3-----------:
F#|------------------------|
C#|------------------------|
G#|------------------------|
D#|3---3---3---3-----------|
  1 + 2 + 3 + 4 + 5 + 6 +


Chorus - 2:44: 6/8 110 BPM

F#|------------------------|------------------------|------------------------|------------------------|
C#|------------------------|------------------------|------------------------|----------------0---2---|
G#|------------------------|------------------------|------------------------|------------------------|
D#|5-5---5---5-5-5---5---5-|5-5---5---5-5---5---5---|5-5---5---5-5-5---5---5-|5-5---5---5-5-----------|
  1 + 2 + 3 + 4 + 5 + 6 + 1 + 2 + 3 + 4 + 5 + 6 + 1 + 2 + 3 + 4 + 5 + 6 + 1 + 2 + 3 + 4 + 5 + 6 +

F#|------------------------|------------------------|------------------------|------------------------|
C#|3-3---3---3-3-3---3---3-|3-3---3---3-3---5---3---|------------------------|------------------------|
G#|------------------------|------------------------|3-3---3---3-3---3---3---|5-5---5---5-7---7---7---|
D#|------------------------|------------------------|------------------------|------------------------|
  1 + 2 + 3 + 4 + 5 + 6 + 1 + 2 + 3 + 4 + 5 + 6 + 1 + 2 + 3 + 4 + 5 + 6 + 1 + 2 + 3 + 4 + 5 + 6 +

F#|------------------------|------------------------|------------------------|------------------------|
C#|------------------------|------------------------|------------------------|------------5---2---5---|
G#|------------------------|------------------------|------------------------|------------------------|
D#|5-5---5---5-5-5---5---5-|5-5---5---5-5---0---3---|5-5---5---5-5-5---5---5-|5-5---5---5-------------|
  1 + 2 + 3 + 4 + 5 + 6 + 1 + 2 + 3 + 4 + 5 + 6 + 1 + 2 + 3 + 4 + 5 + 6 + 1 + 2 + 3 + 4 + 5 + 6 +

F#|------------------------|------------------------|------------------------|------------------------|
C#|3-3---3---3-3-3---3---3-|3-3---3---3-3---5---3---|------------------------|------------------------|
G#|------------------------|------------------------|3-3---3---3-3---3---3---|5-5---5---5-7---7---7---|
D#|------------------------|------------------------|------------------------|------------------------|
  1 + 2 + 3 + 4 + 5 + 6 + 1 + 2 + 3 + 4 + 5 + 6 + 1 + 2 + 3 + 4 + 5 + 6 + 1 + 2 + 3 + 4 + 5 + 6 +

Interlude - 3:11: 4/4 150 BPM

F#|----------------|----------------|--------|
C#|----------------|----------------|--------|
G#|----------------|----------------|--------|
D#|5~--------------|----------------|--------|
  1 + 2 + 3 + 4 + 1 + 2 + 3 + 4 + 1 + 2 +

F#|--------------------------------|--------------------------------|
C#|9~----------7---7---------------|10~---------7---7---------------|
G#|----0---0-----------0---0-------|--------------------0---0-------|
D#|--------------------------------|--------------------------------|
  1 + + + 2 + + + 3 + + + 4 + + + 1 + + + 2 + + + 3 + + + 4 + + +

F#|--------------------------------|--------------------------------|
C#|9~----------7---7---------------|10------12------10------9---7---|
G#|----0---0-----------0---0-------|--------------------------------|
D#|--------------------------------|--------------------------------|
  1 + + + 2 + + + 3 + + + 4 + + + 1 + + + 2 + + + 3 + + + 4 + + +

F#|--------------------------------|--------------------------------|
C#|10-h7-----------7~------7~------|10-h7-----------7~------7~------|
G#|8~------8---8---8---8---8---8---|8~------8---8---8---8---8---8---|
D#|--------------------------------|--------------------------------|
  1 + + + 2 + + + 3 + + + 4 + + + 1 + + + 2 + + + 3 + + + 4 + + +

F#|--------------------------------|--------------------------------|
C#|9~----------10~---------10~-----|12~---------10~---------9~------|
G#|10--10--10--10--10--10--10--10--|10--10--10--10--10--10--10--10--|
D#|--------------------------------|--------------------------------|
  1 + + + 2 + + + 3 + + + 4 + + + 1 + + + 2 + + + 3 + + + 4 + + +

F#|--------------------------------|--------------------------------|
C#|9~----------7---7---------------|10~---------7---7---------------|
G#|----0---0-----------0---0-------|--------------------0---0-------|
D#|--------------------------------|--------------------------------|
  1 + + + 2 + + + 3 + + + 4 + + + 1 + + + 2 + + + 3 + + + 4 + + +

F#|--------------------------------|--------------------------------|
C#|9~----------7---7---------------|14------12------10------9-------|
G#|----0---0-----------0---0-------|--------------------------------|
D#|--------------------------------|--------------------------------|
  1 + + + 2 + + + 3 + + + 4 + + + 1 + + + 2 + + + 3 + + + 4 + + +

F#|--------------------------------|--------------------------------|
C#|10-h7-----------7~------7~------|10-h7-----------7~------7~------|
G#|8~------8---8---8---8---8---8---|8~------8---8---8---8---8---8---|
D#|--------------------------------|--------------------------------|
  1 + + + 2 + + + 3 + + + 4 + + + 1 + + + 2 + + + 3 + + + 4 + + +

F#|--------------------------------|--------------------------------|
C#|9~----------10~---------10~-----|12~---------10~---------9~------|
G#|10--10--10--10--10--10--10--10--|10--10--10--10--10--10--10--10--|
D#|--------------------------------|--------------------------------|
  1 + + + 2 + + + 3 + + + 4 + + + 1 + + + 2 + + + 3 + + + 4 + + +

F#|----------------|----------------|----------------|----------------|
C#|----------------|----------------|----------------|----------------|
G#|----------------|----------------|----------------|----------------|
D#|5-5-5-5-5-5-5-5-|5-5-5-5-5-5-5-5-|5-5-5-5-5-5-5-5-|5-5-5-5-5-5-5-5-|
  1 + 2 + 3 + 4 + 1 + 2 + 3 + 4 + 1 + 2 + 3 + 4 + 1 + 2 + 3 + 4 +

F#|----------------|----------------|----------------|--------x-x-x-x-|
C#|----------------|----------------|----------------|--------x-x-x-x-|
G#|----------------|----------------|----------------|--------x-x-x-x-|
D#|1-1-1-1-1-1-1-1-|1-1-1-1-1-1-1-1-|3-3-3-3-3-3-3-3-|3-3-3-3-x-x-x-x-|
  1 + 2 + 3 + 4 + 1 + 2 + 3 + 4 + 1 + 2 + 3 + 4 + 1 + 2 + 3 + 4 +

F#|----------------|----------------|----------------|----------------|
C#|----------------|----------------|----------------|----------------|
G#|----------------|----------------|----------------|----------------|
D#|5-5-5-5-5-5-5-5-|5-5-5-5-5-5-5-5-|5-5-5-5-5-5-5-5-|5-5-5-5-5-5-5-5-|
  1 + 2 + 3 + 4 + 1 + 2 + 3 + 4 + 1 + 2 + 3 + 4 + 1 + 2 + 3 + 4 +

F#|----------------|----------------|----------------|----------------|
C#|----------------|----------------|----------------|----------------|
G#|----------------|----------------|----------------|--------2-2-2-3-|
D#|1-1-1-1-1-1-1-1-|1-1-1-1-1-1-1-1-|3-3-3-3-3-3-3-3-|3-3-3-3---------|
  1 + 2 + 3 + 4 + 1 + 2 + 3 + 4 + 1 + 2 + 3 + 4 + 1 + 2 + 3 + 4 +

F#|----------------|5-----4-----2---|------2---------|4-----5-----4---|
C#|----------------|----------------|3---------------|----------------|
G#|5-----5-----5-5-|----------------|----------------|----------------|
D#|----------------|----------------|----------------|----------------|
  1 + 2 + 3 + 4 + 1 + 2 + 3 + 4 + 1 + 2 + 3 + 4 + 1 + 2 + 3 + 4 +

F#|----------------|5-----4-----2---|------2---------|4-----5-----7---|
C#|----------------|----------------|3---------------|----------------|
G#|5-----5-----5-5-|----------------|----------------|----------------|
D#|----------------|----------------|----------------|----------------|
  1 + 2 + 3 + 4 + 1 + 2 + 3 + 4 + 1 + 2 + 3 + 4 + 1 + 2 + 3 + 4 +

Breakdown - 4:16: 6/8 110 BPM

F#|------------|------------|------------|------------|
C#|------------|------------|------------|------------|
G#|------------|------------|12\---------|------------|
D#|5-----------|------------|------------|------------|
  1 2 3 4 5 6 1 2 3 4 5 6 1 2 3 4 5 6 1 2 3 4 5 6


Chorus - 4:23: 6/8 110 BPM

F#|------------------------|------------------------|------------------------|------------------------|
C#|------------------------|------------------------|------------------------|----------------0---2---|
G#|------------------------|------------------------|------------------------|------------------------|
D#|5-5---5---5-5-5---5---5-|5-5---5---5-5---5---5---|5-5---5---5-5-5---5---5-|5-5---5---5-5-----------|
  1 + 2 + 3 + 4 + 5 + 6 + 1 + 2 + 3 + 4 + 5 + 6 + 1 + 2 + 3 + 4 + 5 + 6 + 1 + 2 + 3 + 4 + 5 + 6 +

F#|------------------------|------------------------|------------------------|------------------------|
C#|3-3---3---3-3-3---3---3-|3-3---3---3-3---5---3---|------------------------|------------------------|
G#|------------------------|------------------------|3-3---3---3-3---3---3---|5-5---5---5-7---7---7---|
D#|------------------------|------------------------|------------------------|------------------------|
  1 + 2 + 3 + 4 + 5 + 6 + 1 + 2 + 3 + 4 + 5 + 6 + 1 + 2 + 3 + 4 + 5 + 6 + 1 + 2 + 3 + 4 + 5 + 6 +

F#|------------------------|------------------------|------------------------|------------------------|
C#|------------------------|------------------------|------------------------|----------------5---2---|
G#|------------------------|------------------------|------------------------|------------------------|
D#|5-5---5---5-5-5---5---5-|5-5---5---5-5---0---3---|5-5---5---5-5-5---5---5-|5-5---5---5-5-----------|
  1 + 2 + 3 + 4 + 5 + 6 + 1 + 2 + 3 + 4 + 5 + 6 + 1 + 2 + 3 + 4 + 5 + 6 + 1 + 2 + 3 + 4 + 5 + 6 +

F#|------------------------|------------------------|------------------------|------------------------|
C#|3-3---3---3-3-3---3---3-|3-3---3---3-3---5---3---|------------------------|------------------------|
G#|------------------------|------------------------|3-3---3---3-3---3---3---|5-5---5---5-7---7---7---|
D#|------------------------|------------------------|------------------------|------------------------|
  1 + 2 + 3 + 4 + 5 + 6 + 1 + 2 + 3 + 4 + 5 + 6 + 1 + 2 + 3 + 4 + 5 + 6 + 1 + 2 + 3 + 4 + 5 + 6 +

F#|------------------------|------------------------|------------------------|
C#|------------------------|------------------------|------------------------|
G#|------------------------|------------------------|------------------------|
D#|5-5---5---5-5---5---5---|5-5---5---5-------------|5-5---5---5-5---5---5---|
  1 + 2 + 3 + 4 + 5 + 6 + 1 + 2 + 3 + 4 + 5 + 6 + 1 + 2 + 3 + 4 + 5 + 6 +

F#|------------------------------------------------|
C#|------------------------------------------------|
G#|12--12------12------12--12\---------------------|
D#|------------------------------------------------|
  1  +  2  +  3  +  4  +  5  +  6  +


************************************

| / Slide up
| ~ Let ring
| \ Slide down
|3: Triplet
| h Hammer-on / Pull-off

************************************

Almost there ...

Sign in to get your own page with links to favourite songs and more. You are just one click away...

Login with Facebook Login with Google