Log in

One click and you are in

Login with Facebook Login with Google

Why sign up and log in

Guitar Tabs Explorer
Rise Against bass tabs for Make it stop septembers children

Make It Stop Septembers Children bass tab - Rise Against

Rise Against bass tabs for Make it stop septembers children

Bass tabs

Intro
Gb|-----------------------------------------------------------------|
Db|-----------------0~-----------------------------2~---------------|X2
Ab|-2~------------------------------0~------------------------------|
Eb|-----------------------------------------------------------------|

Pre Verse
Gb|-----------------------------------------------------------------|
Db|-----------------0-0-0-0-0-0-0-0-----------------0-0-0-0-0-0-0-0-|X2
Ab|-2-2-2-2-2-2-2-2-----------------0-0-0-0-0-0-0-0-----------------|
Eb|-----------------------------------------------------------------|
Verse
Gb|-----------------------------------------------------------------|
Db|-----------------0-0-0-0-0-0-0-0-----------------2-2-2-2-2-2-2-2-|
Ab|-2-2-2-2-2-2-2-2-----------------0-0-0-0-0-0-0-0-----------------|
Eb|-----------------------------------------------------------------|

Gb|-----------------------------------------------------------------|
Db|-----------------0-0-0-0-0-0-0-0---------------------------------|
Ab|-2-2-2-2-2-2-2-2-----------------0-0-0-0-0-0-0-0-0-0-0-0-0-0-0-0-|
Eb|-----------------------------------------------------------------|

Gb|-----------------------------------------------------------------|
Db|-----------------0-0-0-0-0-0-0-0-----------------2-2-2-2-2-2\0/2-|
Ab|-2-2-2-2-2-2-2-2-----------------0-0-0-0-0-0-0-0-----------------|
Eb|-----------------------------------------------------------------|

Gb|-----------------------------------------------------------------|
Db|-----------------0-0-0-0-0-0-0-0---------------------------------|
Ab|-2-2-2-2-2-2-2-2-----------------0-0-0-0-0-0-0-0-0-0-0-0-0-0-0-0-|
Eb|-----------------------------------------------------------------|


Pre Chorus
Gb|-----------------------------------------------------------------|
Db|-------------------------------------------------2-2-2-2-2-2-2-2-|
Ab|-----------------------------------------------------------------|
Eb|-4-4-4-4-4-4-4-4-6-6-6-6-6-6-6-6-0-0-0-0-0-0-0-0-----------------|

Gb|---------------------------------|
Db|---------------------------------|
Ab|---------------------------------|
Eb|-4-4-4-4-4-4-4-4-6-6-6-6-6-6-6-6-|

Chorus
Gb|-----------------------------------------------------------------|
Db|-----------------0-0-0-0-0-0-0-0---------------------------------|
Ab|-2-2-2-2-2-2-2-2-----------------0-0-0-0-0-0-0-0-----------------|
Eb|-------------------------------------------------0-0-0-0-0-0-0-0-|

Gb|-----------------------------------------------------------------|
Db|-----------------0-0-0-0-0-0-0-0---------------------------------|
Ab|-2-2-2-2-2-2-2-2-----------------0-0-0-0-0-0]--------------------|
Eb|-------------------------------------------------0-0-0-0-0-0]----|

Post Chorus
Gb|-----------------------------------------------------------------|
Db|-----------------0-0-0-0-0-0-0-0---------------------------------|
Ab|-2-2-2-2-2-2-2-2-----------------0-0-0-0-0-0-0-0-----------------|
Eb|-------------------------------------------------0-0-0-0-0-0-0-0-|

Gb|-----------------------------------------------------------------|
Db|-----------------5-5-5-5-5-5-5-5---------------------------------|
Ab|---------------------------------0-0-0-0-0-0-0-0-----------------|
Eb|-4-4-4-4-4-4-4-4---------------------------------0-0-0-0-0-0-0-0-|

Repeat from Pre-Verse. Then...

Bridge
Gb|-----------------------------------------------------------------|
Db|-----------------------------------------------------------------|
Ab|-2-2-2-2-2-2-2-2-0-0-0-0-0-0-0-0---------------------------------|
Eb|---------------------------------3-3-3-3-3-3-3-3-4-4-4-4-4-4-4-4-|

Gb|-----------------------------------------------------------------|
Db|-----------------------------------------------------------------|
Ab|-2-2-2-2-2-2-2-2-3-3-3-3-3-3-3-3---------------------------------|
Eb|---------------------------------3-3-3-3-3-3-3-3-3-3-3-3-3-3-3-3-|

Gb|-----------------------------------------------------------------|
Db|-----------------------------------------------------------------|
Ab|-2-2-2-2-2-2-2-2-0-0-0-0-0-0-0-0---------------------------------|
Eb|---------------------------------3-3-3-3-3-3-3-3-4-4-4-4-4-4-4-4-|

Gb|-----------------------------------------------------------------|
Db|---------------------------------0-0-0-0-0-0-0-0-----------------|
Ab|-2-2-2-2-2-2-2-2-4-4-4-4-4-4-4-4-----------------2-2-2-2-2-2-2-2-|
Eb|-----------------------------------------------------------------|

Gb|---------------------------------|
Db|---------------------------------|
Ab|---------------------------------|
Eb|-3-3-3-3-3-3-3-3-5-5-5-5-5-5-5-5-|

Bridge2
Gb|-----------------------------------------------------------------|
Db|-----------------0-0-0-0-0-0-0-0-----------------2-2-2-2-2-2-2-2-|
Ab|-2-2-2-2-2-2-2-2-----------------0-0-0-0-0-0-0-0-----------------|
Eb|-----------------------------------------------------------------|

Gb|-----------------------------------------------------------------|
Db|-----------------0-0-0-0-0-0-0-0---------------------------------|
Ab|-2-2-2-2-2-2-2-2-----------------0-0-0-0-0-0-0-0-0-0-0-0---------|
Eb|---------------------------------------------------------2-2-3-2-|

Gb|-----------------------------------------------------------------|
Db|-----------------0-0-0-0-0-0-0-0-----------------2-2-2-2-2-2-2-2-|
Ab|-2-2-2-2-2-2-2-2-----------------0-0-0-0-0-0-0-0-----------------|
Eb|-----------------------------------------------------------------|

Gb|-----------------------------------------------------------------|
Db|-----------------0-0-0-0-0-0-0-0-----------------2-2-2-2---------|
Ab|-2-2-2-2-2-2-2-2-----------------0-0-0-0-0-0-0-0-----------------|
Eb|---------------------------------------------------------2-2-3-2-|


Chorus
Gb|-----------------------------------------------------------------|
Db|-----------------0-0-0-0-0-0-0-0---------------------------------|
Ab|-2-2-2-2-2-2-2-2-----------------0-0-0-0-0-0-0-0-----------------|
Eb|-------------------------------------------------0-0-0-0-0-0-0-0-|

Gb|-----------------------------------------------------------------|
Db|-----------------0-0-0-0-0-0-0-0-----------------2-2-2-2-2-2-2-2-|
Ab|-2-2-2-2-2-2-2-2-----------------0-0-0-0-0-0-0-0-----------------|
Eb|-----------------------------------------------------------------|

Gb|-----------------------------------------------------------------|
Db|-----------------0-0-0-0-0-0-0-0---------------------------------|
Ab|-2-2-2-2-2-2-2-2-----------------0-0-0-0-0-0-0-0-----------------|
Eb|-------------------------------------------------0-0-0-0-0-0-0-0-|

Gb|-----------------------------------------------------------------|
Db|-----------------0-0-0-0-0-0-0-0-----------------2-2-2-2-2-2-2-2-|
Ab|-2-2-2-2-2-2-2-2-----------------0-0-0-0-0-0-0-0-----------------|
Eb|-----------------------------------------------------------------|

Gb|-----------------------------------------------------------------|
Db|-----------------0-0-0-0-0-0-0-0---------------------------------|
Ab|-2-2-2-2-2-2-2-2-----------------0-0-0-0-0-0]--------------------|

Almost there ...

Sign in to get your own page with links to favourite songs and more. You are just one click away...

Login with Facebook Login with Google