Log in

One click and you are in

Login with Facebook Login with Google

Why sign up and log in

Guitar Tabs Explorer
Rise Against bass tabs for Broken dreams inc

Bass tabs

  • Difficulty: Intermediate
Tuning: Half-Step Down (Eb Ab Db Gb)


Intro: 0:02

F#|----------------|----------------|----------------|----------------|
C#|----------------|----------------|----------------|----------------|
G#|2-2---2-----2-5-|2-2---2-----2---|2-2---2-----2-4-|5-5---5-5---7-7-|
D#|--------0-2-----|--------0-2---2-|--------0-2-----|----------5-----|

F#|----------------|----------------|----------------|----------------|
C#|----------------|----------------|----------------|----------------|
G#|2-2---2-----2-5-|2-2---2-----2---|2-2---2-----2-4-|5-5---5-5---7-7-|
D#|--------0-2-----|--------0-2---2-|--------0-2-----|----------5-----|

F#|----------------|----------------|----------------|----------------|
C#|----------------|----------------|----------------|----------------|
G#|2-2---2-----2-5-|2-2---2-----2---|2-2---2-----2-4-|5-5---5-5---7-7-|
D#|--------0-2-----|--------0-2---2-|--------0-2-----|----------5-----|


Verse 1:

F#|----------------|----------------|--11--9---------|----------------|
C#|----------------|----------------|9---------12--11|--12----12----12|
G#|2---------------|----------------|----------------|10----10----10--|
D#|----------------|----------------|----------------|----------------|

F#|--11----11----11|----------------|--11--9---------|--12----12----12|
C#|12----12----12--|--14----14----14|9---------12--11|12----12----12--|
G#|----------------|12----12----12--|----------------|----------------|
D#|----------------|----------------|----------------|----------------|

F#|--11----11----11|----------------|----------------|----------------|
C#|12----12----12--|--14------------|----------------|----------------|
G#|----------------|12------0---0---|2-22-22-2-22-22-|----------------|
D#|----------------|----------------|----------------|3-33-33-3-33-33-|

F#|----------------|----------------|----------------|----------------|
C#|--------4-4-----|----------------|9-99-99-9-99-97-|5-55-55-5-55-55-|
G#|5-55-55----5-55-|0-00-00-7-5-4---|----------------|----------------|
D#|----------------|--------------5-|----------------|----------------|

F#|----------------|--------6-7-6---|----------------|----------------|
C#|4-44-44-4-44-44-|2-22-25-------7-|----------------|----------------|
G#|----------------|----------------|----------------|----------------|
D#|----------------|----------------|3-XXXX3---3-3-3-|5-55-55-5-55-55-|

F#|----------------|----------------|----------------|----------------|
C#|----------------|----------------|----------------|----------------|
G#|2-2.--2---2.--2-|--2.--2---2---2-|----------------|----------------|
D#|----------------|----------------|3-XXXX3---3-3-3-|5-55-55-5-55-55-|

F#|----------------|----------------|----------------|----------------|
C#|----------------|----------------|----------------|----------------|
G#|2-2.--2---2.--2-|--2.--2---2---2-|----------------|----------------|
D#|----------------|----------------|3-XXXX3---3-3-3-|5-55-55-5-55-55-|

F#|----------------|----------------|----------------|----------------|
C#|----------------|----------------|----------------|----------------|
G#|2-22-22-2-22-22-|4-44-44-4-44-44-|----------------|----------------|
D#|----------------|----------------|3-33-33-3-33-33-|5-5-5-5-3---2---|


Chorus:

F#|----------------|----------------|----------------|----------------|
C#|----------------|----------------|----------------|----------------|
G#|2---------------|----------------|----------------|--------5-5-0-0-|
D#|----------------|----------------|----------------|3-333333--------|

F#|----------------|----------------|----------------|----------------|
C#|----------------|----------------|----------------|----------------|
G#|2-22-22-2-2-4-4-|5-55-55-5-5-7-7-|----------------|--------5-5-0-0-|
D#|----------------|----------------|5-55-55-5-55-55-|3-33-33---------|

F#|----------------|----------------|----------------|----------------|
C#|----------------|----------------|----------------|----------------|
G#|--2---2-2-22-22-|--5---5-5-55-55-|--7---7-7-77-77-|--------5-5-0-0-|
D#|----------------|----------------|----------------|3-33-33---------|

F#|----------------|----------------|----------------|----------------|
C#|----------------|----------------|----------------|----------------|
G#|2-22-22-2-2-4-4-|5-55-55-5-5-7-7-|----------------|--------5-5-0-0-|
D#|----------------|----------------|5-55-55-5-55-55-|3-33-33---------|

F#|----------------|----------------|----------------|----------------|
C#|----------------|----------------|----------------|----------------|
G#|2-2---2-----2-5-|2-2---2-----2---|2-2---2-----2-4-|5-5---5-5---7-7-|
D#|--------0-2-----|--------0-2---2-|--------0-2-----|----------5-----|


Verse 2:

F#|----------------|----------------|----------------|----------------|
C#|----------------|----------------|----------------|----------------|
G#|2-2-2-2-2-2-2-2-|----------------|5-5-5-5-5-5-5-5-|0-0-0-0-0-0-0-0-|
D#|----------------|3-3-3-3---3-3-3-|----------------|----------------|

F#|----------------|----------------|----------------|----------------|
C#|----------------|----------------|----------------|----------------|
G#|2-2-2-2-2-2-2-2-|----------------|5-5-5-5-5-5-5-5-|0-0-0-0-0-0-0-0-|
D#|----------------|3-3-3-3-3-3-3-3-|----------------|----------------|

F#|----------------|----------------|----------------|6-----4-----2---|
C#|----------------|----------------|----------------|----------------|
G#|----------------|----------------|2-2-2-2-2-2-2-2-|----------------|
D#|3-3-3-3-3-3-3-3-|5-5-5-5-5-5-5-5-|----------------|----------------|

F#|----------------|----------------|
C#|----------------|----------------|
G#|----------------|----------------|
D#|3-3-3-3-3-3-3-3-|5---------------|


Chorus:

F#|----------------|----------------|----------------|----------------|
C#|----------------|----------------|----------------|----------------|
G#|2-22-22-2-2-4-4-|5-55-55-5-5-7-7-|----------------|--------5-5-0-0-|
D#|----------------|----------------|5-55-55-5-55-55-|3-33-33---------|

F#|----------------|----------------|----------------|----------------|
C#|----------------|----------------|----------------|----------------|
G#|2-22-22-2-2-4-4-|5-55-55-5-5-7-7-|----------------|--------5-5-0-0-|
D#|----------------|----------------|5-55-55-5-55-55-|3-33-33---------|

F#|----------------|----------------|----------------|----------------|
C#|----------------|----------------|----------------|----------------|
G#|--2---2-2-22-22-|--5---5-5-55-55-|--7---7-7-77-77-|--------5-5-0-0-|
D#|----------------|----------------|----------------|3-33-33---------|

F#|----------------|----------------|----------------|----------------|
C#|----------------|----------------|----------------|----------------|
G#|2-22-22-2-2-4-4-|5-55-55-5-5-7-7-|----------------|--------5-5-0-0-|
D#|----------------|----------------|5-55-55-5-55-55-|3-33-33---------|


Post-Chorus:

F#|----------------|----------------|----------------|----------------|
C#|----------------|----------------|----------------|----------------|
G#|2---------------|----------------|----------------|----------------|
D#|----------------|----------------|----------------|----------------|

F#|----------------|----------------|----------------|----------------|
C#|----------------|----------------|9-9-9-9-9-9-9-9-|9-9-9-9-9-7-5-4-|
G#|2-2-2-2-2-2-2-2-|2-2-2-2-2-2-2-2-|----------------|----------------|
D#|----------------|----------------|----------------|----------------|

F#|----------------|----------------|----------------|----------------|
C#|----------------|----------------|----------------|----------------|
G#|2-2-2-2-2-2-2-2-|----------------|5-5-5-5-5-5-5-5-|----------------|
D#|----------------|5-5-5-5-5-5-5-5-|----------------|3-3-3-3-3-3-3-3-|

F#|----------------|----------------|----------------|----------------|
C#|----------------|----------------|----------------|----------------|
G#|2-2-2-2-2-2-2-2-|----------------|----------------|----------------|
D#|----------------|5-5-5-5-5-5-5-5-|3---X-3---X-3---|X-3---X-5-5-5-5-|


Bridge:

F#|----------------|----------------|----------------|----------------|
C#|----------------|----------------|----------------|----------------|
G#|2-2-2-2-2-2-2-2-|2-2-2-2-2-2-2-2-|----------------|----------------|
D#|----------------|----------------|5-5-5-5-5-5-5-5-|5-5-5-5-5-5-5-5-|

F#|----------------|----------------|----------------|----------------|
C#|----------------|----------------|----------------|----------------|
G#|5-5-5-5-5-5-5-5-|5-5-5-5-5-5-5-5-|----------------|----------------|
D#|----------------|----------------|3-3-3-3-3-3-3-3-|5-5-5-5-5-5-5-5-|

F#|----------------|----------------|----------------|----------------|
C#|----------------|----------------|----------------|----------------|
G#|2-2-2-2-2-2-2-2-|2-2-2-2-2-2-2-2-|----------------|----------------|
D#|----------------|----------------|5-5-5-5-5-5-5-5-|5-5-5-5-5-5-5-5-|

F#|----------------|----------------|----------------|----------------|
C#|----------------|------------4-4-|5-5-5-5-5-5-5-5-|7-7-7-7-7-7-7-7-|
G#|5-5-5-5-5-5-5-5-|5-5-5-5-5-5-----|----------------|----------------|
D#|----------------|----------------|----------------|----------------|

F#|----------------|----------------|----------------|----------------|
C#|----------------|----------------|----------------|----------------|
G#|----------------|----------------|----------------|----------------|
D#|3-----3---3-3-3-|3-----3---3-3-3-|5-----5---5-5-5-|5-----5-3-3-2-2-|


Breakdown:

F#|----------------|----------------|----------------|----------------|
C#|----------------|----------------|----------------|----------------|
G#|2-2-2-2-2-2-4-4-|5-5-5-5-5-5-7-7-|----------------|--------5-5-0-0-|
D#|----------------|----------------|5-5-5-5-5-5-5-5-|3-3-3-3---------|

F#|----------------|----------------|----------------|----------------|
C#|----------------|----------------|----------------|----------------|
G#|2-2-2-2-2-2-4-4-|5-5-5-5-5-5-7-7-|----------------|--------5-5-0-0-|
D#|----------------|----------------|5-5-5-5-5-5-5-5-|3-3-3-3---------|


Outro:

F#|----------------|----------------|----------------|----------------|
C#|----------------|----------------|----------------|----------------|
G#|2-2-2-2-2-2-4-4-|5-5-5-5-5-5-7-7-|----------------|--------5-5-0-0-|
D#|----------------|----------------|5-5-5-5-5-5-5-5-|3-3-3-3---------|

F#|----------------|----------------|----------------|----------------|
C#|----------------|----------------|----------------|----------------|
G#|2-2-2-2-2-2-4-4-|5-5-5-5-5-5-7-7-|----------------|--------5-5-0-0-|
D#|----------------|----------------|5-5-5-5-5-5-5-5-|3-3-3-3---------|

F#|----------------|----------------|----------------|----------------|
C#|----------------|----------------|----------------|----------------|
G#|2-2-2-2-2-2-4-4-|5-5-5-5-5-5-7-7-|----------------|--------5-5-0-0-|
D#|----------------|----------------|5-5-5-5-5-5-5-5-|3-3-3-3---------|

F#|----------------|----------------|----------------|----------------|
C#|----------------|----------------|----------------|----------------|
G#|2-2-2-2-2-2-4-4-|5-5-5-5-5-5-7-7-|----------------|--------5-5-0-0-|
D#|----------------|----------------|5-5-5-5-5-5-5-5-|3-3-3-3---------|

F#|----------------|
C#|----------------|
G#|2\--------------|
D#|----------------|


************************************

| X Dead note
| / Slide up
| \ Slide down
| . Staccato

************************************

Almost there ...

Sign in to get your own page with links to favourite songs and more. You are just one click away...

Login with Facebook Login with Google