Log in

One click and you are in

Login with Facebook Login with Google

Why sign up and log in

Guitar Tabs Explorer
Rilo Kiley bass tabs for The angels hung around

The Angels Hung Around bass tab - Rilo Kiley

Rilo Kiley bass tabs for The angels hung around

Bass tabs

The Angels Hung Around


Tuning: Standard

(0:00) Verse 1

G|---------------------------------|
D|---------------------------------|
A|-5-55-5-55-5-54-42-22-2-20-05-55-|
E|---------------------------------|

G|----------------------------|
D|--------------2-22----------|
A|-5-54-42-22-4------4-0-00-4-|
E|----------------------------|

G|-----------------------|
D|-----------------------|
A|-5-54-42-22-2-20-05-55-| x2
E|-----------------------|

(0:33) Chorus

G|-----------------|
D|-----------------|
A|-5-5-------------| x3
E|-----5-5-3-3-3-3-|

G|---------------|
D|--------------7|
A|---------5-55--|
E|-3-3-5-5-------|

(0:48) Verse 2

G|--------------------------|
D|--------------------------|
A|-5-54-42-22-2-20-05-55-24-|
E|--------------------------|

G|-----------------------------|
D|--------------2-22-----------|
A|-5-54-42-22-4------4-0-2-4-7-|
E|-----------------------------|

G|--------------------------------|
D|--------------------------------|
A|-5-54-42-22-5-54-42-22-22-22-02-|
E|--------------------------------|

G|-------------------------|
D|-------------------------|
A|-5-54-42-22-2-20-05-55-7-|
E|-------------------------|

(1:20) Chorus

G|-----------------|
D|-----------------|
A|-5-5-------------| x3
E|-----5-5-3-3-3-3-|

G|---------------|
D|--------------7|
A|---------5-55--|
E|-3-3-5-5-------|

Almost there ...

Sign in to get your own page with links to favourite songs and more. You are just one click away...

Login with Facebook Login with Google