Search tabs and chords

Search for song, artist or band

Log in

One click and you are in

Login with Facebook Login with Google

Why sign up and log in

Guitar Tabs Explorer
Rihanna bass tabs for Stay

Bass tabs

Rihanna ft Mikky ekko - Stay (Bass Tab)

Tuning: Standard (EADG)


Intro (Bass=Piano)
G|-------------------------------------------|
D|-------------------------------------------|
A|--3-3-3h5----------------------------------| x6
E|----------5-5-5-3-5-5-5-3-5-5-5-3----------|

Or

G|-------------------------------------------|
D|-------------------------------------------|
A|--3-3-3h5-0-0-0-0-0-0-0-0-0----------------| x6
E|---------------3-----3-----3---------------|


Pre-Chorus : 0:51 "Round and around and.."   (Bass=Voice)

G|-------------------------------------------|
D|-------------------------------------------|
A|-5--555--555--555--73--3-3-3-3-3-----------|
E|-------------------------------------------|

 "Oh........."

G|-------|
D|-------|
A|-0h3---|
E|-------|

 "..Now tell me now tell..."

G|-------------------------------------------|
D|-------------------------------------------|
A|-5--555--555--555--7-----------------------|
E|---------------------3--3-3-3-3-3-3-3------|

Chorus : "Not really sure.."

G|-------------------------------------------|
D|-------------------------------------------|
A|--3-3-3-3--5-5-5-5-------------------------| x4
E|-------------------------------------------|


"I want you to Stayyy.. And Mikky Ekko.." 1:25 / 1:50
intro x3


1:51/2:08
Pre-Chorus x1

2:09/2:25
Chorus x4

2.25/2.33
Intro x1


Bass Solo 2:34/2:42 2:43/2:51 "Ohhh the reason I hold on.." (Watch the cover for the tempo)

G|--12/14--14-12------------------------------------------------------|
D|--------------14-12-14--141414-12-12-10-12--12-12--12-12--12-14-14--|
A|--------------------------------------------------------------------| x2
E|--------------------------------------------------------------------|

2:51/3:00

G|--14-14-14-14-17-17-17-17-21-21-21-21-21-21-21-21--|
D|---------------------------------------------------|
A|---------------------------------------------------|
E|---------------------------------------------------|

3:00/3:08

G|--14-14-14-14-17-17-17-17-16-16-16-16-16-16-17-17--|
D|---------------------------------------------------|
A|---------------------------------------------------|
E|---------------------------------------------------|

Chorus         3:08/...

G|-------------------------------------------|
D|-------------------------------------------|
A|--3-3-3-3--5-5-5-5-------------------------|
E|-------------------------------------------|


Please check out my other videos on youtube rate commente.. thanks ;)

Almost there ...

Sign in to get your own page with links to favourite songs and more. You are just one click away...

Login with Facebook Login with Google