Log in

One click and you are in

Login with Facebook Login with Google

Why sign up and log in

Guitar Tabs Explorer
Rihanna guitar tabs for Kiss it better

Guitar tabs

Tuning: Standard (E A D G B E)


Intro:

E|-9--7-6-7-9------9-9-9--9-9-7-6-7--------|
B|-----------7~--------------------9~------|
G|-----------------------------------------|
D|-----------------------------------------|
A|-----------------------------------------|
E|-----------------------------------------|

E|-9--7-6-7-9------9-9-9--9-9-7-6-7--------|
B|-----------7~--------------------9~------|
G|-----------------------------------------|
D|-----------------------------------------|
A|-----------------------------------------|
E|-----------------------------------------|




Chorus:
“what are you willing to do...”
E|-9-9-7-6-7-9------9-9-9--9-9-7-6-7-------|
B|------------7~--------------------9~-----|
G|-----------------------------------------|
D|-----------------------------------------|
A|-----------------------------------------|
E|-----------------------------------------|

E|9--9-9-7-6-7-9------9-9-9--9-9-7-6-7-----|
B|--------------7~--------------------9~---|
G|-----------------------------------------|
D|-----------------------------------------|
A|-----------------------------------------|
E|-----------------------------------------|


Pretty much the same for all of the chorus in the song


************************************

| ~  Vibrato

************************************

Other versions of Kiss It Better

Kiss it betterChords
Kiss it better (Ver. 2)Chords

↓ Add and view comments below ↓

What do you think about this song and these tabs?

Add your comments, questions, rant or a thumbs up below.

Almost there ...

Sign in to get your own page with links to favourite songs and more. You are just one click away...

Login with Facebook Login with Google