Log in

One click and you are in

Login with Facebook Login with Google

Why sign up and log in

Guitar Tabs Explorer
Rihanna bass tabs for Consideration

Bass tabs

G|----------------------------------------------------------------|
D|----------------------------------------------------------------|
A|----------------------------------------------------------------|
E|----------------------------------------------------------------|
B|4-----------4---3---------------3-----------3---1---------------|

G|----------------------------------------------------------------|
D|----------------------------------------------------------------|
A|----------------------------------------------------------------|
E|----------------------------------------------------------------|
B|4-----------4---3---------------3-----------3---1-------1-------|

G|----------------------------------------------------------------|
D|----------------------------------------------------------------|
A|----------------------------------------------------------------|
E|--------1-------------------------------------------------------|
B|4-----------4---3---------------3---------------1-------1-------|

G|----------------------------------------------------------------|
D|----------------------------------------------------------------|
A|----------------------------------------------------------------|
E|----------------------------------------------------------------|
B|4-----------4---3---------------3---------------3-------1-------|

0:27

G|----------------------------------------------------------------|
D|----8---5-----------7---------------7---3-----------5-----------| x4
A|6-----------6---5---------------5-----------5---3---------------|
E|----------------------------------------------------------------|
B|----------------------------------------------------------------|

0:53

G|----------------------------------------------------------------|
D|----------------------------------------------------------------|
A|----------------------------------------------------------------|
E|----------------------------------------------------------------|
B|4-----------4---3---------------3-----------3---1---------------|

G|----------------------------------------------------------------|
D|----------------------------------------------------------------|
A|----------------------------------------------------------------|
E|----------------------------------------------------------------|
B|----------------------------------------------------------------|

G|----------------------------------------------------------------|
D|----------------------------------------------------------------|
A|----------------------------------------------------------------|
E|--------1-------------------------------------------------------|
B|4-----------4---3---------------3---------------1-------1-------|

G|----------------------------------------------------------------|
D|----------------------------------------------------------------|
A|----------------------------------------------------------------|
E|----------------------------------------------------------------|
B|4-----------4---3---------------3---------------3-------1-------|

1:20

G|----------------------------------------------------------------|
D|----8---5-----------7---------------7---3-----------5-----------| x2
A|6-----------6---5---------------5-----------5---3---------------|
E|----------------------------------------------------------------|
B|----------------------------------------------------------------|

G|----------------------------------------------------------------|
D|----8---5-----------7---------------7---3-----------------------|
A|6-----------6---5---------------5-----------5-------------------|
E|----------------------------------------------------------------|
B|----------------------------------------------------------------|

G|----------------------------------------------------------------|
D|----8---5-----------7---------------7---3-----------5-----------|
A|6-----------6---5---------------5-----------5---3---------------|
E|----------------------------------------------------------------|
B|----------------------------------------------------------------|

1:46

G|----------------------------------------------------------------|
D|----------------------------------------------------------------|
A|----------------------------------------------------------------|
E|----------------------------------------------------------------|
B|4-----------4---3---------------3-----------3---1---------------|

G|----------------------------------------------------------------|
D|----------------------------------------------------------------|
A|----------------------------------------------------------------|
E|----------------------------------------------------------------|
B|4-----------4---3---------------3-----------3---1-------1-------|

G|----------------------------------------------------------------|
D|----------------------------------------------------------------|
A|----------------------------------------------------------------|
E|--------1-------------------------------------------------------|
B|4-----------4---3---------------3---------------1-------1-------|

G|----------------------------------------------------------------|
D|----------------------------------------------------------------|
A|----------------------------------------------------------------|
E|----------------------------------------------------------------|
B|4-----------4---3---------------3---------------3-------1-------|

2:13

G|----------------------------------------------------------------|
D|----8---5-----------7---------------7---3-----------5-----------| x4
A|6-----------6---5---------------5-----------5---3---------------|
E|----------------------------------------------------------------|
B|----------------------------------------------------------------|

Almost there ...

Sign in to get your own page with links to favourite songs and more. You are just one click away...

Login with Facebook Login with Google