Log in

One click and you are in

Login with Facebook Login with Google

Why sign up and log in

Guitar Tabs Explorer
Rihanna bass tabs for California king bed

Bass tabs

Intro
G|------------------------|
D|------------------------|
A|----3-----3-----3-----5-|
E|-3-----3-----3-----3----| optional but you can play with along
Verse
G|------|
D|------|
A|----3-|
E|-3----|8x optional but you can play it along


Prechorus
G|--------------|
D|--------------|
A|----5---7---3-|
E|-3------------|2x


Chorus1
G|-------------------------------------------------------------------|
D|-------------------------------------------------------------------|
A|-----------------5-5-5-5-5-5-5-5--7-7-7-7-7-7-7-7--3-3-3-3-3-3-3-3-|
E|-3-3-3-3-3-3-3-3---------------------------------------------------|

G|---------------------------------------------------------------------|
D|---------------------------------------------------------------------|
A|-----------------5-5-5-5-5-5-5-5--7-7-7-7-7-7-7-7--3-3-3-3-3-3-3-3---|
E|-3-3-3-3-3-3-3-3---------------------------------------------------3-|

Repeat verse, prechorus


Chorus2
G|-------------------------------------------------------------------|
D|-------------------------------------------------------------------|
A|-----------------5-5-5-5-5-5-5-5--7-7-7-7-7-7-7-7--3-3-3-3-3-3-3-3-|
E|-3-3-3-3-3-3-3-3---------------------------------------------------|2x

Solo
G|-------------------------------------------------------------------|
D|-------------------------------------------------------------------|
A|-----------------5-5-5-5-5-5-5-5--7-7-7-7-7-7-7-7--3-3-3-3-3-3-3-3-|
E|-3-3-3-3-3-3-3-3---------------------------------------------------|2x


Bridge
G|----------------------------------------------------------|
D|----------------------------------------------------------|
A|-------------5--5--5--5--7-7-7-7-7-7-7-7--3-3-3-3-3-3-3-3-|
E|-3--3--3--3-----------------------------------------------|

G|-------------------------------------------------------------------|
D|-------------------------------------------------------------------|
A|-----------------5-5-5-5-5-5-5-5--7-7-7-7-7-7-7-7--3-3-3-3-3-3-3-3-|
E|-3-3-3-3-3-3-3-3---------------------------------------------------|

G|-------------------------|
D|-------------------------|
A|-----------------5-5-5-5-|
E|-5-5-5-5-5-5-5-5---------|


Outro
G|-------------------------------------------------------------------|
D|-------------------------------------------------------------------|
A|-----------------5-5-5-5-5-5-5-5--7-7-7-7-7-7-7-7--3-3-3-3-3-3-3-3-|
E|-3-3-3-3-3-3-3-3---------------------------------------------------|5x

G|---------------------------------------------------------------------|
D|---------------------------------------------------------------------|
A|-----------------5-5-5-5-5-5-5-5--7-7-7-7-7-7-7-7--3-3-3-3-3-3-3-3---|
E|-3-3-3-3-3-3-3-3---------------------------------------------------3-|

Other versions of California King Bed

California king bed (Ver. 2)Bass tabs

Almost there ...

Sign in to get your own page with links to favourite songs and more. You are just one click away...

Login with Facebook Login with Google