Log in

One click and you are in

Login with Facebook Login with Google

Why sign up and log in

Guitar Tabs Explorer
Ride tabs for Sennen

Guitar tabs

Album: Today Forever EP, Nowhere (Re-Release)
As tabbed by Tim Dery

Let's hear it for British Bands!
This song is basically an A chord diagramA augmentedA chord, I finger it like
this:

e--0--------
B--5--------
G--6--------
D--7--------
A--0--------
E--x--------

Does this every once in awhile:

e--0------0------0-
B--5------5------5-
G--6------6------6-
D--7------7------7-
A--0------0------0-
E--x------7-----(5)

As well as this:

e--0------0------0-
B--5------5------5-
G--6------7------6-
D--7------7------7-
A--0------0------0-
E--x------x------x-


Fun 2nd guitar part:

e----------------------------
B----0-----0-----------------
G------2-----2---2-----------
D--2-----2-----2-------------
A----------------------------
E----------------------------

Cool Part:

e-------------------------------------
B-------------------------------------
G--7----6---4---11----9---------------
D-(7)--(7)----------------------------
A--5----4---2----9----7---------------
E--------------------(0)--------------

I think the A chord diagramA augmentedA chord goes under this whole part

Bass line is :

E---5555555----7777777------5555555

A--------------------------------999999---77777
E----10-10-10-10-10-99999-777777---------------

"they'll never invade her now"

E----5555555----77777777-----10-10-10-10-10-10-10----555555


Cheers!
http://www.rideox4.com/
http://homepage.mac.com/aaront/ride/old/ride/lyrics.html

Almost there ...

Sign in to get your own page with links to favourite songs and more. You are just one click away...

Login with Facebook Login with Google